Log in

One click and you are in

Login with Facebook Login with Google

Why sign up and log in

Guitar Tabs Explorer
10000 Maniacs bass tabs for Few and far between

Few And Far Between bass tab by 10000 Maniacs

10000 Maniacs bass tabs for Few and far between

Bass tabs with lyrics

Db tuning; all strings down 1 & 1/2 steps (5-string transcribed for 4-string).

🏷Legend:
r = rest
/ = slide up
\ = slide down
() = sustained note
vf = volume fade (appears above bar)
vo = volume out (appears above bar)

INTRO:

E |-----------------|
B |-----------------|
Gb |-----------------|
Db |-r---------------|
   1 & 2 & 3 & 4 &

E |-----------------|-----------------|-----------------|-----------------|
B |---------------6-|(6)6-6---2-4-2---|-----------------|-----------------|
Gb |---------7-9-7---|---------------4-|-2-r-2-----0---2-|(2)2-0-0---------|
Db |-5-r-5-/---------|-----------------|-------------2---|---------2-2-0-0-|
   1 & 2 & 3 & 4 &  1 & 2 & 3 & 4 &  1 & 2 & 3 & 4 &  1 & 2 & 3 & 4 &


VERSE 1 (x2):

E |-----------------|-----------------|-----------------|-----------------|
B |---------------6-|(6)6-6---2-4-2---|-----------------|-----------------|
Gb |---------7-9-7---|---------------4-|-2-r-2-----0---2-|(2)2-0-0---------|
Db |-5-r-5-/---------|-----------------|-------------2---|---------2-2-0-0-|
   1 & 2 & 3 & 4 &  1 & 2 & 3 & 4 &  1 & 2 & 3 & 4 &  1 & 2 & 3 & 4 &

PRE-VERSE:

E |-----------------|-----------------|-----------------|------------------|-----------------|
B |-----------------|-------6---7---9-|-----------------|------------------|-----------------|
Gb |-7---7---------7-|(7)9-------------|-7---7---------7-|(7)\------------7-|-5-r-5-------5---|
Db |-----------7-9---|-----------------|-----------7-9---|----4---5---7-----|---------5-7---7-|
   1 & 2 & 3 & 4 &  1 & 2 & 3 & 4 &  1 & 2 & 3 & 4 &  1 & 2 & 3 & 4 &  1 & 2 & 3 & 4 &


VERSE 2 (x2):

E |-----------------|-----------------|-----------------|-----------------|
B |---------------6-|(6)6-6---2-4-2---|-----------------|-----------------|
Gb |---------7-9-7---|---------------4-|-2-r-2-----0---2-|(2)2-0-0---------|
Db |-5-r-5-/---------|-----------------|-------------2---|---------2-2-0-0-|
   1 & 2 & 3 & 4 &  1 & 2 & 3 & 4 &  1 & 2 & 3 & 4 &  1 & 2 & 3 & 4 &


PRE-CHORUS:

E |-----------------|------------------|-----------------|-----------------|
B |-----------------|------------------|-----------------|-------6---7---9\|
Gb |-7---7---------7-|(7)\--------------|-7---7---------7-|(7)9-------------|
Db |-----------7-9---|----4---5---6---7-|-----------7-9---|-----------------|
   1 & 2 & 3 & 4 &  1 & 2 & 3 & 4 &  1 & 2 & 3 & 4 &  1 & 2 & 3 & 4 &

E |-----------------|-----------------|
B |-----------------|-----------------|
Gb |-5-r-5---------5-|(5)----5-------5-|
Db |---------2-5-7---|---7-5-----5-7---|
   1 & 2 & 3 & 4 &  1 & 2 & 3 & 4 &

E |-----------------|------------------|-----------------|-----------------|-----------------|
B |-----------------|------------------|-----------------|-------6---7---9\|-----------------|
Gb |-7---7---------7-|(7)\--------------|-7---7---------7-|(7)9-------------|-5-r-5-------5-7/|
Db |-----------7-9---|----4---5---6---7-|-----------7-9---|-----------------|---------5-7-----|
   1 & 2 & 3 & 4 &  1 & 2 & 3 & 4 &  1 & 2 & 3 & 4 &  1 & 2 & 3 & 4 &  1 & 2 & 3 & 4 &


CHORUS 1:

E |-----------------|-----------------|-----------------|-----------------|
B |-9---7-----------|-----------------|-----------------|-----------------|
Gb |---------9-9-7-7-|-9---9-7---9---7\|-5-----5---------|-5-----5---------|
Db |-----------------|-----------------|---5-7-----7-5-7-|---5-7-----7-5-/-|
   1 & 2 & 3 & 4 &  1 & 2 & 3 & 4 &  1 & 2 & 3 & 4 &  1 & 2 & 3 & 4 &

E |-----------------|-----------------|-----------------|-----------------|
B |-9-r-9-7---9---7-|-----------------|-----------------|-----------------|
Gb |-----------------|-9---9-7---9---7\|-5-----5---------|-5-----5---------|
Db |-----------------|-----------------|---5-7-----7-5-7-|---5-7---------7-|
   1 & 2 & 3 & 4 &  1 & 2 & 3 & 4 &  1 & 2 & 3 & 4 &  1 & 2 & 3 & 4 &


VERSE 3 (x2):

E |-----------------|-----------------|-----------------|-----------------|
B |---------------6-|(6)6-6---2-4-2---|-----------------|-----------------|
Gb |---------7-9-7---|---------------4-|-2-r-2-----0---2-|(2)2-0-0---------|
Db |-5-r-5-/---------|-----------------|-------------2---|---------2-2-0-0-|
   1 & 2 & 3 & 4 &  1 & 2 & 3 & 4 &  1 & 2 & 3 & 4 &  1 & 2 & 3 & 4 &


PRE-CHORUS:

E |-----------------|------------------|-----------------|-----------------|
B |-----------------|------------------|-----------------|-------6---7---9\|
Gb |-7---7---------7-|(7)\--------------|-7---7---------7-|(7)9-------------|
Db |-----------7-9---|----4---5---6---7-|-----------7-9---|-----------------|
   1 & 2 & 3 & 4 &  1 & 2 & 3 & 4 &  1 & 2 & 3 & 4 &  1 & 2 & 3 & 4 &

E |-----------------|-----------------|
B |-----------------|-----------------|
Gb |-5-r-5---------5-|(5)----5-------5-|
Db |---------2-5-7---|---7-5-----5-7---|
   1 & 2 & 3 & 4 &  1 & 2 & 3 & 4 &

E |-----------------|------------------|-----------------|-----------------|-----------------|
B |-----------------|------------------|-----------------|-------6---7---9\|-----------------|
Gb |-7---7---------7-|(7)\--------------|-7---7---------7-|(7)9-------------|-5-r-5-------5-7/|
Db |-----------7-9---|----4---5---6---7-|-----------7-9---|-----------------|---------5-7-----|
   1 & 2 & 3 & 4 &  1 & 2 & 3 & 4 &  1 & 2 & 3 & 4 &  1 & 2 & 3 & 4 &  1 & 2 & 3 & 4 &


CHORUS 2:

E |-----------------|-----------------|-----------------|-----------------|
B |-9---7-----------|-----------------|-----------------|-----------------|
Gb |---------9-9-7-7-|-9---9-7---9---7\|-5-----5---------|-5-----5---------|
Db |-----------------|-----------------|---5-7-----7-5-7-|---5-7-----7-5-/-|
   1 & 2 & 3 & 4 &  1 & 2 & 3 & 4 &  1 & 2 & 3 & 4 &  1 & 2 & 3 & 4 &

E |-----------------|-----------------|-----------------|-----------------|
B |-9-r-9-7---9---7-|-----------------|-----------------|-----------------|
Gb |-----------------|-9---9-7---9---7\|-5-----5---------|-5-----5---------|
Db |-----------------|-----------------|---5-7-----7-5-7-|---5-7-----7-5-/-|
   1 & 2 & 3 & 4 &  1 & 2 & 3 & 4 &  1 & 2 & 3 & 4 &  1 & 2 & 3 & 4 &

E |-----------------|-----------------|-----------------|-----------------|
B |-9-r-9-7---9---7-|-----------------|-----------------|-----------------|
Gb |-----------------|-9---9-7---9---7\|-5-----5---------|-5-----5---------|
Db |-----------------|-----------------|---5-7-----7-5-7-|---5-7-----7-5-/-|
   1 & 2 & 3 & 4 &  1 & 2 & 3 & 4 &  1 & 2 & 3 & 4 &  1 & 2 & 3 & 4 &

E |-----------------|-----------------|-----------------|-----------------|
B |-9---7-----------|-----------------|-----------------|-----------------|
Gb |---------9-9-7-7-|-9---9-7---9---7\|-5-----5---------|-5-----5---5-5---|
Db |-----------------|-----------------|---5-7-----7-5-7-|---5-7---------7-|
   1 & 2 & 3 & 4 &  1 & 2 & 3 & 4 &  1 & 2 & 3 & 4 &  1 & 2 & 3 & 4 &

E |-----------------|-----------------|-----------------|-----------------|
B |-----------------|-----------------|-----------------|-----------------|
Gb |-----------------|-----------------|-----------------|-----------------|
Db |-5---------------|(5)--------------|(5)--------------|(5)--------------|
   1 & 2 & 3 & 4 &  1 & 2 & 3 & 4 &  1 & 2 & 3 & 4 &  1 & 2 & 3 & 4 &


OUTRO:

E |-----------------|-----------------|-----------------|-----------------|
B |---------------6-|(6)6-6---2-4-2---|-----------------|-----------------|
Gb |---------7-9-7---|---------------4-|-2-r-2-----0---2-|(2)2-0-0---------|
Db |-5-r-5-/---------|-----------------|-------------2---|---------2-2-0-0-|
   1 & 2 & 3 & 4 &  1 & 2 & 3 & 4 &  1 & 2 & 3 & 4 &  1 & 2 & 3 & 4 &

E |-----------------|-----------------|-----------------|-----------------|
B |---------------6-|(6)6-6---2-4-2---|-----------------|-----------------|
Gb |---------7-9-7---|---------------4-|-2-r-2-----0---2-|(2)2-0-0---------|
Db |-5-r-5-/---------|-----------------|-------------2---|---------2-2-0-0-|
   1 & 2 & 3 & 4 &  1 & 2 & 3 & 4 &  1 & 2 & 3 & 4 &  1 & 2 & 3 & 4 &

E |-----------------|-----------------|-----------------|-----------------|
B |---------------6-|(6)6-6-------6-7-|-9-r-9---9-7---9-|(9)9-7-7---------|
Gb |---------7-9-7---|---------7-9-----|-------------9---|---------9-9-9-\-|
Db |-5-r-5-/---------|-----------------|-----------------|-----------------|
   1 & 2 & 3 & 4 &  1 & 2 & 3 & 4 &  1 & 2 & 3 & 4 &  1 & 2 & 3 & 4 &

E |-----------------|-----------------|-----------------|-----------------|
B |---------------6-|(6)6-6---2-4-2---|-----------------|-----------------|
Gb |---------7-9-7---|---------------4-|-2-r-2-----0---2-|(2)2-0-0---------|
Db |-5-r-5-/---------|-----------------|-------------2---|---------2-2-0-0-|
   1 & 2 & 3 & 4 &  1 & 2 & 3 & 4 &  1 & 2 & 3 & 4 &  1 & 2 & 3 & 4 &

           vf
E |-----------------|-----------------|-----------------|-----------------|
B |---------------6-|(6)6-6-------6-7-|-9-r-9-----7---9-|(9)9-7-6---------|
Gb |---------7-9-7---|---------7-9-----|-------------9---|---------9-7-5---|
Db |-5-r-5-/---------|-----------------|-----------------|---------------7-|
   1 & 2 & 3 & 4 &  1 & 2 & 3 & 4 &  1 & 2 & 3 & 4 &  1 & 2 & 3 & 4 &

                           vo
E |-----------------|-----------------|-----------------|
B |---------------6-|(6)6-6---2-4-2---|-----------------|
Gb |---------7-9-7---|---------------4-|-2-r-2-----0---2-|
Db |-5-r-5-/---------|-----------------|-------------2---|
   1 & 2 & 3 & 4 &  1 & 2 & 3 & 4 &  1 & 2 & 3 & 4 &

Almost there ...

Sign in to get your own page with links to favourite songs and more. You are just one click away...

Login with Facebook Login with Google