Log in

One click and you are in

Login with Facebook Login with Google

Why sign up and log in

Guitar Tabs Explorer
10000 Maniacs bass tabs for Because the night

Bass tabs

Intro
   (Rest x4)
G |-----------------|
D |-----------------|
A |-----------------|
E |-r---------------|
  1 & 2 & 3 & 4 &
verse 1
   (Rest x8)
G |-----------------|
D |-----------------|
A |-----------------|
E |-r---------------|
  1 & 2 & 3 & 4 &


Pre-Chorus
G |-----------------|-----------------|-----------------|-----------------|
D |-----------------|-----------------|-----------------|-----------------|
A |-----------------|-5---5-----------|-----------------|-----------------|
E |-3-3---5-------5-|---------5-5-5-5-|-7-7-r-3-------3-|-3---3---5---5-5-|
  1 & 2 & 3 & 4 &  1 & 2 & 3 & 4 &  1 & 2 & 3 & 4 &  1 & 2 & 3 & 4 &

G |-----------------|-----------------|-----------------|-----------------|
D |-----------------|-----------------|-----------------|-----------------|
A |-5-5-5-----------|-----------------|-3-----3-3-------|-2-----2-2-------|
E |-------3-----3-3-|-3---3---5-5-5---|-----------------|-----------------|
  1 & 2 & 3 & 4 &  1 & 2 & 3 & 4 &  1 & 2 & 3 & 4 &  1 & 2 & 3 & 4 &

G |-----------------|-----------------|
D |-----------------|-----------------|
A |-----------------|-----------------|
E |-2-2-2-2-2-2-2-2-|-2-2-2-2-2-2-2-2-|
  1 & 2 & 3 & 4 &  1 & 2 & 3 & 4 &

Chorus 1
G |-----------------|-----------------|-----------------|-----------------|
D |-----------------|-----------------|-----------------|-----------------|
A |-----------------|-----------------|-----------------|-----------------|
E |-7-7-r-3-3-----3-|-3---3-/-5-5-5-5-|-7-7-r-3-3-----3-|-3---5---7---7-7-|
  1 & 2 & 3 & 4 &  1 & 2 & 3 & 4 &  1 & 2 & 3 & 4 &  1 & 2 & 3 & 4 &

G |-----------------|-----------------|-----------------|-----------------|
D |-----------------|-----------------|-----------------|-----------------|
A |-----------------|-----------------|-----------------|-----------------|
E |-7-7-r-3-3-----3-|-3---3-/-5-5-5-5-|-7-7-r-3-3-----3-|-3---5---7-------|
  1 & 2 & 3 & 4 &  1 & 2 & 3 & 4 &  1 & 2 & 3 & 4 &  1 & 2 & 3 & 4 &

PRE-VERSE
G |-----------------|-----------------|-----------------|-----------------|
D |-----------------|-----------------|-----------------|-----------------|
A |-----------------|-----------------|-----------------|-----------------|
E |-7---------------|(7)--------------|-r---------------|-r---------------|
  1 & 2 & 3 & 4 &  1 & 2 & 3 & 4 &  1 & 2 & 3 & 4 &  1 & 2 & 3 & 4 &


verse 2
         (x4)
G |-----------------|-----------------|
D |-----------------|-----------------|
A |-2---------------|-0-----2---------|
E |-------3---------|-----------------|
  1 & 2 & 3 & 4 &  1 & 2 & 3 & 4 &


Pre-Chorus
G |-----------------|-----------------|-----------------|-----------------|
D |-----------------|-----------------|-----------------|-----------------|
A |-----------------|-5---5-----------|-----------------|-----------------|
E |-3-3-r-5-------5-|---------5-5-5-5-|-7-7-r-3-------3-|-3---3---5---5-5-|
  1 & 2 & 3 & 4 &  1 & 2 & 3 & 4 &  1 & 2 & 3 & 4 &  1 & 2 & 3 & 4 &

G |-----------------|-----------------|-----------------|-----------------|
D |-----------------|-----------------|-----------------|-----------------|
A |-5-5-5-----------|-----------------|-3-----3-3-------|-2-----2-2-------|
E |-------3-----3-3-|-3---3---5-5-5---|-----------------|-----------------|
  1 & 2 & 3 & 4 &  1 & 2 & 3 & 4 &  1 & 2 & 3 & 4 &  1 & 2 & 3 & 4 &

G |-----------------|-----------------|
D |-----------------|-----------------|
A |-----------------|-----------------|
E |-2-2-2-2-2-2-2-2-|-2-2-2-2-2-2-2-2-|
  1 & 2 & 3 & 4 &  1 & 2 & 3 & 4 &


Chorus 2
G |-----------------|-----------------|-----------------|-----------------|
D |-----------------|-----------------|-----------------|-----------------|
A |-----------------|-----------------|-----------------|-----------------|
E |-7-7-r-3-3-----3-|-3---3-/-5-5-5-5-|-7-7-r-3-3-----3-|-3---5---7---7-7-|
  1 & 2 & 3 & 4 &  1 & 2 & 3 & 4 &  1 & 2 & 3 & 4 &  1 & 2 & 3 & 4 &

G |-----------------|-----------------|-----------------|-----------------|
D |-----------------|-----------------|-----------------|-----------------|
A |-----------------|-----------------|-----------------|-----------------|
E |-7-7-r-3-3-----3-|-3---3-/-5-5-5-5-|-7-7-r-3-3-----3-|-3---5---7-7-7-5-|
  1 & 2 & 3 & 4 &  1 & 2 & 3 & 4 &  1 & 2 & 3 & 4 &  1 & 2 & 3 & 4 &

VIOLIN SOLO
G |-----------------|-----------------|-----------------|-----------------|
D |-----------------|-----------------|-----------------|-----------------|
A |-----------------|-5---5-----------|-----------------|-----------------|
E |-3-3---5-5---5-5-|---------5-5-5-5-|-7-7---3-3---3-3-|-3---3---5-5-5-5-|
  1 & 2 & 3 & 4 &  1 & 2 & 3 & 4 &  1 & 2 & 3 & 4 &  1 & 2 & 3 & 4 &

G |-----------------|-----------------|-----------------|-----------------|
D |-----------------|-----------------|-----------------|-----------------|
A |-5-5-------------|-----------------|-5-0-5-0-5-0-5-0-|-5-0-5-0-5-0-5-5-|
E |-------3-3---3-3-|-3---3-/-5-5-5-5-|-----------------|-----------------|
  1 & 2 & 3 & 4 &  1 & 2 & 3 & 4 &  1 & 2 & 3 & 4 &  1 & 2 & 3 & 4 &


Bridge
G |-----------------|-----------------|-----------------|-----------------|
D |-----------------|-----------------|-----------------|-----------------|
A |-5---5-5---------|-5---5-5---------|-2---2-0-0---0-5-|-5---5-----------|
E |---------5---5-5-|---------5-5-5-5-|-----------------|-------5-5-5-5-5-|
  1 & 2 & 3 & 4 &  1 & 2 & 3 & 4 &  1 & 2 & 3 & 4 &  1 & 2 & 3 & 4 &

G |-----------------|-----------------|-----------------|-----------------|
D |-----------------|-----------------|-----------------|-----------------|
A |-2---2-0-0---0-5-|-5---5-------5-5-|-------5-5---X---|-----------------|
E |-----------------|-------5-5-5-----|-3---X---------3-|-3---X-3-3-3-3-3-|
  1 & 2 & 3 & 4 &  1 & 2 & 3 & 4 &  1 & 2 & 3 & 4 &  1 & 2 & 3 & 4 &

G |-----------------|-----------------|-----------------|-----------------|
D |-----------------|-------2-----4---|-5-5-5-5-5-5-5-5-|-4-4-4-4-4-4-4---|
A |-2-----4-----5---|-5---------------|-----------------|-----------------|
E |-----------------|-----------------|-----------------|-----------------|
  1 & 2 & 3 & 4 &  1 & 2 & 3 & 4 &  1 & 2 & 3 & 4 &  1 & 2 & 3 & 4 &


Chorus 3
G |-----------------|-----------------|-----------------|-----------------|
D |-----------------|-----------------|-----------------|-----------------|
A |-----------------|-----------------|-----------------|-----------------|
E |-7-7-r-3-3-----3-|-3---3-/-5-5-5-5-|-7-7-r-3-3-----3-|-3---5---7---7-7-|
  1 & 2 & 3 & 4 &  1 & 2 & 3 & 4 &  1 & 2 & 3 & 4 &  1 & 2 & 3 & 4 &

G |-----------------|-----------------|-----------------|-----------------|
D |-----------------|-----------------|-----------------|-----------------|
A |-----------------|-----------------|-----------------|-----------------|
E |-7-7-r-3-3-----3-|-3---3-/-5-5-5-5-|-7-7-r-3-3-----3-|-3---5---7-7-7-7-|
  1 & 2 & 3 & 4 &  1 & 2 & 3 & 4 &  1 & 2 & 3 & 4 &  1 & 2 & 3 & 4 &


Outro
G |-----------------|-----------------|-----------------|-----------------|
D |-----------------|-----------------|-----------------|-----------------|
A |-----------------|-----------------|-----------------|-----------------|
E |-7-7-r-3-3-----3-|-3---3-/-5-5-5-5-|-7-7-r-3-3-----3-|-3---5---7---7-7-|
  1 & 2 & 3 & 4 &  1 & 2 & 3 & 4 &  1 & 2 & 3 & 4 &  1 & 2 & 3 & 4 &

                    6/4            4/4 (Let ring)
G |-----------------|-----------------|-------------------------|-----------------|
D |-----------------|-----------------|-------------------------|-----------------|
A |-----------------|-----------------|-------------------------|-----------------|
E |-7-7-r-3-3-----3-|-3---3-/-5-5-5-5-|-7-7-r-3-3-----3-3---5---|-7---------------|
  1 & 2 & 3 & 4 &  1 & 2 & 3 & 4 &  1 & 2 & 3 & 4 & 5 & 6 &  1 & 2 & 3 & 4 &


************************************

| r  Release
| /  Slide up
| (n) Ghost note

************************************

Almost there ...

Sign in to get your own page with links to favourite songs and more. You are just one click away...

Login with Facebook Login with Google