Log in

One click and you are in

Login with Facebook Login with Google

Why sign up and log in

Guitar Tabs Explorer
100 Gecs bass tabs for Sympathy 4 the grinch

Bass tabs

Tuning: Standard (E A D G)

Main theme:

G|----------------------------------------------------------|
D|---------4-5-4-------4-5-4--------------------------4-5-4-|
A|----5-5----------2-2------------2-5------4-7----5-5-------|
E|----------------------------3-5------5-7------------------|


Bridge:


G|--------|--------|--------|--------|--------|--------|
D|--------|--------|--------|--------|--------|--------|
A|--------|--------|--------|--------|--------|--------|
E|7-7-7-7-|5-5-5-5-|3-3-3-3-|3-3-3-3-|2-2-2-2-|6-6-6-6-|

or:

G|--------|--------|--------|--------|--------|--------|
D|--------|--------|--------|--------|--------|--------|
A|2-2-2-2-|0-0-0-0-|--------|--------|--------|1-1-1-1-|
E|--------|--------|3-3-3-3-|3-3-3-3-|2-2-2-2-|--------|


happy holidays & stay safe XOXO
any questions hmu on discord motaqk#3142

Almost there ...

Sign in to get your own page with links to favourite songs and more. You are just one click away...

Login with Facebook Login with Google