Guitar tabs explorer
Print tab

Frank Zappa - “Watermelon in easter hay“ Guitar tab

Frank Zappa Watermelon in easter hay guitar tab. Related pages are Billy The Mountain Bass Tabs, Stick Together Chords, Valarie Chords, Crusin For Burgers Tabs, Elvis Has Just Left The Building Chords. See all Frank Zappa tabs. Submit corrected and missing guitar tab here.

Please rate and comment!


Frank Zappa     Watermelon in Easter Hay




E||--------------------------------------|
B||--------------------------------------|
G||--------------------------------------|
D||--------------------------------------|
A||--------------------------------------|
E||--------------------------------------|




|---9b-----------------------------------------|
|--------------12--10--9-9---------------------|
|*---------------------------------------------|
|*---------------------------------------------|
|----------------------------------------------|
|----------------------------------------------|



--9b-----------------------------------------------|
-------------12--10--9-9----9-10-12----------------|
---------------------------------------------------|
---------------------------------------------------|
---------------------------------------------------|
---------------------------------------------------|



--9b------------------------------------------------------|
-------------12--10--9-9-------------9----------9---------|
----------------------------------------11--11-----9------|
------------------------------------------------------11--|
----------------------------------------------------------|
----------------------------------------------------------|



--------------------------------9---------------------------------||
-------------------------9----9---12-9----------------------------||
-------9---------------9---11b---------11-9----9-----------------*||
--9-11---11-9-11-----9b---------------------11-------------------*||
------------------------------------------------------------------||
------------------------------------------------------------------||



----------------------------------------------------||
----------------------------------------------------||
*--2---4-6-4------2--4-----------------------------*||
*-----------------------6--4--6--------------------*||
----------------------------------------------------||
----------------------------------------------------||



------------------------------------------------------------|
--------2---------------------------------------------------|
--2---4---4------2--4---------------------------------------|
-----------------------6--4--6------------6--4--4--6--2-----|
---------------------------------------------------------4--|
------------------------------------------------------------|



---------------------------------------------------------|
---------------------------------------------------------|
-------------------------x-6-4---------------------------|
-----2-------------2-4b6-------6-4-2---2-----------------|
---4---4-2-4-----4-------------------4-------------------|
---------------------------------------------------------|



|---9b-----------------------------------------|
|--------------12--10--9-9---------------------|
|*---------------------------------------------|
|*---------------------------------------------|
|----------------------------------------------|
|----------------------------------------------|



--9b-----------------------------------------------|
-------------12--10--9-9----9-10-12----------------|
---------------------------------------------------|
---------------------------------------------------|
---------------------------------------------------|
---------------------------------------------------|



--9b------------------------------------------------------|
-------------12--10--9-9-------------9----------9---------|
----------------------------------------11--11-----9------|
------------------------------------------------------11--|
----------------------------------------------------------|
----------------------------------------------------------|



--------------------------------9---------------------------------||
-------------------------9----9---12-9----------------------------||
-------9---------------9---11b---------11-9----9-----------------*||
--9-11---11-9-11-----9b---------------------11-------------------*||

Be the first to rate:

Rating: Not rated