Promise Reprise By Akira Yamaoka

Browse chords & tabs: GuitarTabsExplorer / Y / Akira Yamaoka

Guitar Tabs with Lyrics


Print tab
Complete (As far as I know) tablature for the song Promise(Reprise) from the
Silent Hill 2 Soundtrack.

This was originally written by Akira Yamaoka. Loved the song enough to do
this. Got sheet music and transposed.

Took a while. Use at your own risk or whatever.

All trademarks, copyrights, and credit go to the original artist.

Standard tuning: eBGDAE

As far as I know this is in G minor.

Playing tips:

 For the bits surrounded by astrix': Tap the high notes on the e, B and G
strings with your right hand while you

hammer the low notes one the E, A, D and G strings with your left.


 Q=80
 4/4

********************************************************************************
  Gtr I
  Q   E E Q    Q      H       Q    Q     Q   E E Q    Q      H       Q    Q
|-------------15---|-------------------|-------------15---|--------------------|
|------------------|--------------15---|------------------|--------------15----|
|-----7--------7---|-12---5--------5---|-----7--------7---|-12---5--------5----|
|-----------5----5-|----5---5---5----5-|-----------5----5-|----5---5---5----5--|
|---5---5-6--------|--7-------6--------|---5---5-6--------|--7-------6---------|
|-3----------------|-------------------|-3----------------|--------------------|
  E E Q   E E  E E    E E E E E E  E E   E E Q   E E  E E    E E E E E E  E
E

********************************************************************************


    S S S S S S S S Q   E S S   E  E E  E S S S S Q    8x
||----------------------------|------------------------||
||o---------------------------|-----------------------o||
||--------5-7-5---------7-----|-5----5------------5----||
||--5-7-8-------8-7-5-7---7-8-|----8-7----8-7-5---7----||
||o-----5-------5---6-----8---|-7-10---10-6-----8---10o||
||--3-------------------------|------------------------||
    E   E   E   E   E E E E     E  E E  E Q       E  E


    E   E   E   E   E   E   E   E     E   E   E   E   E   E   E   E    4x
||----------------------------------|----------------------------------||
||o-3---3---3---3-----------3-------|-1---1---1---1-----------1-------o||
||------------------3---3---3---3---|-----------------3---3---3---3----||
||----------------------5-------5---|-----5---------------5------------||
||o-----5-------5---6---------------|-7-----------5---6-----------5---o||
||--3-3---3---3---3---3---3---3---3-|---3---3---3---3---3---3---3---3--||
    S S S S S S S S S S S S S S S S   S S S S S S S S S S S S S S S S


**************************************************
  Q   E E Q    Q      H       Q    Q
|-------------15---|-------------------|
|------------------|--------------15---|
|-----7--------7---|-12---5--------5---|
|-----------5----5-|----5---5---5----5-|
|---5---5-6--------|--7-------6--------|
|-3----------------|-------------------|
  E E Q   E E  E E    E E E E E E  E E


  Q   E E Q    Q      Q    Q    Q    Q
|-------------15---|-----------15---17---|
|------------------|------13-------------|
|-----7--------7---|-12----5---------5-5-|
|-----------5----5-|----5----5----5----5-|
|---5---5-6--------|--7---------6--------|
|-3----------------|---------------------|
  E E Q   E E  E E    E E  E E  E E  E E


   E  E  E  E  Q  Q
|-17-17-17-17-17-------|
|----------------------|
|--5--5--5--5--5-------|
|--5--5--5--5--5-------|
|----------------------|
|----------------------|
   E  E  E  E  Q  Q

*************************************************

To more conveniently handle this project, the program PowerTab was used.
Thank you very much Brad Larsen for

making this program.

Uriah Hensley

Lemme know what'cha think.
uriah_franklin@earthlink.net


Please rate:
Star rating 1Star rating 2Star rating 3Star rating 4Star rating 5

Rating: 5 / 5 [2 votes]



Also by akira yamaoka

Claw Finger tabs
Theme Of Laura tabs
Youre Not Here intro
Promise bass tabs
Promise Reprise tabs
Hole In The Sky chords
This Sacred Line tabs
Room Of Angel tabs