Guitar tabs explorer

That Feel by Tom Waits

Browse chords & tabs: W / Tom Waits

Guitar Chords with Lyrics


Print tab

this work represents my interpretation of this song.. but it's pretty damn good.

tom waits
"that feel"
from the album "the bone machine"

rather simple and beautiful song by mr. waits and mr. keith richards of the rolling stones.
listen to the song for the tempo/changes

     A chord diagramAA

-----0-------------0-----------------------------------------
-----2-------------2-----------------------------------------
-----2-------------2-----------------------------------------
-----2-------------2-----------------------------------------
-----0-------------0-----------------------------------------
-------------------------------------------------------------
 Well there's one thing you can't lose..

   Dsus2 chord diagramDsus2Dsus2          Esus4 chord diagramEsus4Esus4    Esus4w3

---0-------0---------0-------0-----------------
---3-------3---------0-------0-----------------
---2-------2---------2-------1-----------------
---0-------0---------2-------2-----------------
---0-------0---------0-------0-----------------
-----------------------------------------------
it's that feel..

this pattern repeats until the bridge
the progression then goes:

Dsus2 chord diagramDsus2Dsus2      Esus4 chord diagramEsus4Esus4 Esus4w3    A chord diagramAA     Dsus2 chord diagramDsus2Dsus2    Dsus2 chord diagramDsus2Dsus2     Esus4 chord diagramEsus4Esus4 Esus4w3  A chord diagramAA  Emaj7sus4
-----------------------------------------------------------------------------0-
-----------------------------------------------------------------------------0-
-----------------------------------------------------------------------------2-
-----------------------------------------------------------------------------1-
-----------------------------------------------------------------------------2-
-----------------------------------------------------------------------------0-
You can..              					   You can never take..

song repeats after that.  simple but wonderful.
regards,
zack
zdl100@psu.edu

The End                                                  The End

Please rate:
Star rating 1Star rating 2Star rating 3Star rating 4Star rating 5

Rating: 5 / 5 [3 votes]