Where Have All The Good Times Gone By Van Halen : Tabs : GTE

Where Have All The Good Times Gone By Van Halen

Browse chords & tabs: GuitarTabsExplorer / V / Van Halen

Guitar Tabs


GTE======GTE=========GTE====================GTE=========================== 
Van Halen - Where Have All The Good Times Gone
From Diver Down
 
Transcribed by Steve L. sliston@cogeco.ca
 
/ slide up
\ slide down
~ vibrato or whamy
x harmonic
 
Standard tuning
 
Intro
E|------------------------------------------------|
B|--9---9-7~----/9---9-7~----/9---9-7~----8/9\8~--|
G|--9-9-9-7~----/9-9-9-7~----/9-9-9-7~----8/9\8~--|
D|----9------------9------------9-----------------|
A|------------------------------------------------|
E|------------------------------------------------|
 
Play this through each verse and chorse
E|----------------------|
B|----------------------|
G|----------------------|
D|----------------------|
A|--7/9-99\7-77/9-99\5--|
E|--5/7-77\5-55/7-77\5--|
 
Bridge
E|----------------------------------0-0-------2----0---|
B|--------------------------5------0--2--------2----0--|
G|-------------------9---9\6--6-------2----------------|
D|-------------------9---9\6---6--4---2----------------|
A|--0h2-2/5-5/7-7/9--7---7\4-----2----0-----4----------|
E|------------------------------------------2----2-----|
 

This is the cool lead fill at the end of each bridge: (sort of)
E|-------------------|
B|-------------------|
G|--7b9--------------|
D|------9-7----------|
A|----------9-8-7-5--|
E|-------------------|
 

Solo:
E|--------------------------------------------------------------|
B|--------------------------------------------------------------|
G|----4b5r4-9b11r9~--9-7h9r7h9r7h9r7h9r7h9r7h9r7-9-7-6---x--0~--|Divewiththewham
D|-------------------9---------------------------9-7-6--x-------|on the 0
A|--2----------------7---------------------------7-5-4----------|
E|--------------------------------------------------------------|
 
E|----------------------------------------------|
B|----------------------------------------------|
G|---9-7h9r7h9r7h9r7h9r7h9r7h9r7-9-7-6---x~-----|
D|---9---------------------------9-7-6--x-------|
A|---7---------------------------7-5-4----------|
E|----------------------------------------------|
 

Suggestions or comments welcome.