Guitar tabs explorer
Print tab

Triumph - “Lay it on the line“ Guitar tab

Triumph Lay it on the line guitar tab.

Related pages are Lay It On The Line Video Tutorial, Lay It On The Line Chords, Fight The Good Fight Tabs, Fight The Good Fight Tabs, Magic Power Tabs.

Submit corrected and missing guitar tab here.

This 'Lay it on the line' guitar tab by Triumph also include lyrics.

Please rate and comment!


Triumph ^ Lay It On The Line (Fills And Solo)
Tabbed By ^ Jason Medeiros

This is a great song by Triumph, and I^m surprised it hasn^t been tabbed out 
already. I didn^t tab out any chords to this song because someone has 
already done that so I^ve put together all the fills and solo. Enjoy, and 
let^s make the Triumph archive bigger!!!
Get Better Steph!!!!


| = not a standard bar line; just used to separate music
h = hammer on
p = pull off
s = slide
b = bend string up to indicated pitch/fret
r = release bend to indicated string/fret
tr = trill
() = ghost note

[First Fill]
(0:13)					    (0:20)
|------------------------------------|---------------------5h-7s-8s-10-10s-12-|
|------------------------------------|----------------5h-8--------------------|
|------------------------------------|-----------5h-7-------------------------|
|-7h-9-----7----7--------------------|------5h-7------------------------------|
|------------10-----10-9-10--9----7b-|-5h-7-----------------------------------|
|------------------------------10----|----------------------------------------|

[Second Fill]
(1:27)                  (1:32)                  (1:35)
|-----------------------|-----------------------|-12-15-17--12----15----------|
|-----------------------|-8-7-5-----------------|-----------------------------|
|--------------5b^5b----|-------8-7-5--7-8-5----|-----------------------------|
|-5(tr)7---7b-----------|-----------------------|-----------------------------|
|-----------------------|-----------------------|-----------------------------|
|-----------------------|-----------------------|-----------------------------|

(1:41)
|-10b-------------------------------------------------------------------------|
|-----9-10---8---6----------17-15-13-10-13-15-17------------------------------|
|-------------------(7)-7-5---------------------------------------------------|
|---------------------------7--5--4--0--3--5--7-------------------------------|
|-----------------------------------------------------------------------------|
|-----------------------------------------------------------------------------|

[Solo]
(2:20)                                            (2:28)
|------------------|---------------|--------------|---------------------------|
|------------------|---------------|--------------|----------18--17-18-17-----|
|-(3)s^5s^7s--10---|-10s^12s^14----|-14s-16s-17---|-19--21--------------------|
|------------------|---------------|--------------|---------------------------|
|------------------|---------------|--------------|---------------------------|
|------------------|---------------|--------------|---------------------------|

|--------------|------------------------------------------|-------------------|
|--------------|-----------------------------------20br20-|-18--17-18-17------|
|-19-17--------|-------17---19b19b19b--17-----------------|-------------------|
|---------17---|-19-21---------------------21-19----------|-------------------|
|--------------|------------------------------------------|-------------------|
|--------------|------------------------------------------|-------------------|


|-----------------------------------------------------------------------------|
|-----------------------------------------------------------------------------|
|---------------------------------------------------------------17--16-17-16--|
|-17--15--14------14-15-14--------------------------------14^17---------------|
|-------------17------------17--15--15------------15--17----------------------|
|---------------------------------------17-15-17------------------------------|



|-----------------17------------------------------------------20--------------|
|-------18--18-20-----20------20-----20----------------17-19------------------|
|-14----------------------19b----19b----19b-17--17--19------------------------|
|----17-----------------------------------------------------------------------|
|-----------------------------------------------------------------------------|
|-----------------------------------------------------------------------------|


|-----------------------------------------|-----------------------------------|
|-17--17-18-17----------------------------|-----------------------------------|
|---------------19--17--17-19-17----------|----16-17-19--17-16----------------|
|--------------------------------19-17-19-|-19-----------------19-17-14-12-10-|
|-----------------------------------------|-----------------------------------|
|-----------------------------------------|-----------------------------------|

|--------------------------|--------------------------------------------------|
|--------------------------|--------------------------------------------------|
|--------------------------|-----------------------------19-17-19--17----17---|
|-9--------------------12b-|----------15----15--17-15-17--------------19------|
|---12-10----------10------|-------------17-----------------------------------|
|---------12-10-12---------|-17-15-17-----------------------------------------|


|-----------------------------------------------------------------------------|
|-----------17----17--20-17-17-17-17---20-17-17-17-17---20-17-17-17-17--------|
|-19-17-19-----19-------------------------------------------------------------|
|-----------------------------------------------------------------------------|
|-----------------------------------------------------------------------------|
|-----------------------------------------------------------------------------|


|-20b-17----------------------------------------------------------------------|
|---------20b-20b-------------------------------------------------------------|
|-----------------------------------------------------------------------------|
|-----------------------------------------------------------------------------|
|-----------------------------------------------------------------------------|
|-----------------------------------------------------------------------------|

Be the first to rate:

Star rating 1
Star rating 2
Star rating 3
Star rating 4
Star rating 5

Rating: Not rated