Guitar tabs explorer
Print tab

Taylor Swift - “White horse (Ver3)“ Chords

Taylor Swift White horse (Ver3) Chords

Related pages are White Horse Video Tutorial, White Horse (Ver2) Chords, White Horse (Ver3) Tabs, White Horse Acoustic (Ver2) Chords, White Horse (Ver2) Tabs.

Submit corrected and missing chords here.

These 'White horse (Ver3)' chords by Taylor Swift also include lyrics.

Please rate and comment!



Tuning: EADGBe
Taylor Swift
White Horse
Fearless
2009
Submitted by: paramore_fans@yahoo.com

Key: C


Chords used:
C -    x32010
F -    133211
Am -   x02210
G -    320003
G/B -  x2x003
Bb -   x13331
Gsus - 320013


Intro:

Guitar 1: Plucking
        C              F            Am             F
e|--------3-----|-------3-----|-------3-----|-------3-----|
B|-1---1----1---|-1--1----1---|-1--1----1---|-1--1----1---|
G|--------------|-------------|-------------|-------------|
D|--------------|-------------|-------------|-------------| x2
A|-3---3--------|-------------|-0--0--------|-------------|
E|------------0-|-1--1------1-|-----------0-|-1--1------1-|

Guitar 2:
          C                 F                Am               F
e|-----3-----3-----|---1-3---1-3-----|-----5-----5-----|---1-3---1-3-----|
B|---1-----1-----1-|-------------1---|---5-----5---5---|-------------1---|
G|-0-----0-----0---|-----------------|---------------5-|-----------------|
D|-----------------|-3-----3-------3-|-----------------|-3-----3-------3-|
A|-----------------|-----------------|-0-----0---------|-----------------|
E|-----------------|-----------------|-----------------|-----------------|

Piano:
       C            F         Am    F
e|-15--13-12-|--13-12-----|--13-12--|
B|-----------|---------13-|---------|
G|-----------|------------|---------|
D|-----------|------------|---------|
A|-----------|------------|---------|
E|-----------|------------|---------|

Violin:
   C   F   Am  F
e|---|---|---|---|
B|---|---|-1-|-3-|
G|---|---|---|---|
D|---|-2-|---|---|
A|-3-|---|---|---|
E|---|---|---|---|


Verse 1:
C
  Say you're sorry
     F
That face of an angel
      Am
Comes out just
                   F
when you need it to
C
  As I paced back and
F
forth all this time
        Am
Cause I honestly
           F
believed in you


Refrain 1:
Am
Holding on
    F
The days drag on
       Gsus
Stupid girl
I should have known
              G
I should have known


Chorus 1:
          C
I'm not a princess
             Am
this ain't a fairytale
            F
I'm not the one you'll
sweep off her feet
G
Lead her up the stairwell
           C
This ain't Hollywood
           Am
this is a small town
        F
I was a dreamer before
             G
you went and let me down
         Am           G/B
Now it's too late for you
         F
And your white horse
to come around


Interlude:

Guitar 1:
        C
e|--------3-----|
B|-1---1----1---|
G|--------------|
D|--------------| x2
A|-3---3--------|
E|------------0-|

Piano:
             C
e|-15--13-12------1--0----|
B|------------13--------1-|
G|------------------------|
D|------------------------|
A|------------------------|
E|------------------------|


Verse 2:
C
  Maybe I was naive
F
  Got lost in your eyes
    Am
And never really had a
      F C
chance    My mistake I
       F
didn't know to be in love
           Am
You had to fight to
                   F
have the upper hand


Refrain 2:
      Am
I had so many dreams
      F
About you and me
      Gsus          G
Happy endings now I know


(Repeat Chorus 1)


Interlude:

Piano:
       C            Am            F       G
e|----1--0----|----1--0----|----1--0----|---|
B|-1--------1-|----------1-|----------1-|-3-|
G|------------|-2----------|-2----------|---|
D|------------|------------|------------|---|
A|------------|------------|------------|---|
E|------------|------------|------------|---|


Bridge:
Am              G/B
  And there you are
        F
on your knees
C                G/B
  Begging for forgiveness
F
  begging for me
C             G/B
  Just like I always wanted
F            Bb
  but I'm so sorry


Chorus 2:
             C
I'm not your princess
             Am
this ain't a fairytale
          F
I'm gonna find someone
              G
someday who's actually
Treating me well
             C
This ain't a big world
            Am
that was a small town
           F
Letting my rear view
            G
mirror disappearing now
         Am           G/B
Now it's too late for you
         F
And your white horse
         Am           G/B
Now it's too late for you
         F
And your white horse
            C  F
to catch me now


Outro:
   Am        F
Oh whoa whoa whoa
                 C
Try and catch me now
  F Am
Oh   it's too late
F             C(hold)
  To catch me now

Be the first to rate:

Star rating 1
Star rating 2
Star rating 3
Star rating 4
Star rating 5

Rating: Not rated