Safe And Sound By Taylor Swift

Browse chords & tabs: GuitarTabsExplorer / S / Taylor Swift

Guitar Tabs with Lyrics


'Safe and sound' is a soundtrack single from 'The
hunger games' movie from 2012. It is a colaboration between Taylor
Swift and folkrock duo The Civil Wars. Taylor Swift had great success
marketing the song on Twitter.



It became a hit on iTunes following her initial tweets about the song.
'Safe and sound' features lots of twangy guitars and is great fun
to play. Use these tabs to get the correct Taylor Swift sound on this
awesome song. Have fun!



GTE======GTE=========GTE====================GTE=========================== 
-----------------------------------------------------------------------------
	SAFE AND SOUND  - Taylor Swift
-----------------------------------------------------------------------------
Tabbed by: Kevin Nguyen
Submitted to GTE by: TaylorPower!!!

Capo on 7th fret.

INTRO:
E |--------------1h-0----------------------------------|
B |--------------3-----------------------1-------------|
G |--------2-----------2-------------------------------|
D |--0-----------------------------2-----2-------------|
A |--------------------------0-------------------------|
E |----------------------------------------------------|


----------------------------------------------------|
-----------------------------------------------1----|
--0h-2--2-----2-----0--------------0----------------|
--3-----3-----3-----------0h-2--2-----------2-------|
--------------------------3-----------0h-3----------|
----------------------------------------------------|


--------------1h-0----------------------------------|
--------------3-----------------------1-------------|
--2-----2-----------2-------------------------------|
--0-----------------------------2-----2-------------|
--------------------------0-------------------------|
----------------------------------------------------|


----------------------------------------------------|
--------------1-----------1-------------------------|
--2-----2-----------2h-0----------------------------|
--3-----3-------------------------------------------|
--------------------------3-------------------------|
--1-------------------------------------------------|


VERSE:
--1-----------1h-0--------------------0-------------|
--3-----------3-----------------------1-------------|
-----------2-----------2--------2-----------2-------|
--0-----0-----------0-----2-------------------------|
--------------------------0-------------------------|
----------------------------------------------------|


----------------------------------------------------|
-----------------------------------------------1----|
--0h-2--2-----2-----0--------------0--------0-------|
--3-----3-----3-----3-----0h-2--2-------------------|
--------------------------3-----------0h-3----------|
--1-------------------------------------------------|


--------------1h-0----------------------------------|
--------------3-----------------------1-------------|
--0-----2-----------2-----------------2-------------|
--0-----------------------------2-----------2-------|
--------------------------0-------------------------|
----------------------------------------------------|


--------------------------------------0-------------|
--------------1-----------1-----------1-------------|
--2-----2-----------0h-2----------------------------|
--3-----3-----------------------2-------------------|
--------------------------3-----------3-------------|
----------------------------------------------------|


--1-----------1h-0--------------------0-------------|
--3-----------3-----------------------1-------------|
-----------2-----------2--------2-----------2-------|
--0-----0-----------0-----2-------------------------|
--------------------------0-------------------------|
----------------------------------------------------|


----------------------------------------------------|
--------------1--------------------------------1----|
--2-----2-----2-----0h-2-----------0----------------|
--3-----------------------0h-2--2-----------2-------|
--------------------------3-----------0h-3----------|
----------------------------------------------------|


----------------------------------------------------|
--------------0-----------1-----------3-------------|
--------------0--------0----------------------------|
--------0-----------0-----2-----2-----------2-------|
----------------------------------------------------|
--3-------------------------------------------------|


--------------------0-----0-------------------------|
----------------------------------------------------|
--2-----2-----2--------2--2-------------------------|
----------------------------------------------------|
----------------------------------------------------|
----------------------------------------------------|


CHORUS:
--------------------------------------0-------------|
--1-----------1-----------3-----------1-------------|
--------------2--------2--2--------------------0----|
--3-----3-----------3-----------3-----------0-------|
----------------------------------------------------|
----------------------------------------------------|


--3-----------3h-0--------------3h-0----------------|
--1-----------1-----------3-----------3-----1-------|
-----------------------0--------------0-----0-------|
--------2-----------2-------------------------------|
--3-------------------------------------------------|
--------------------------3-------------------------|


--------------------------------------0-------------|
--------------1-----------3-----------1-------------|
--0h-2-----------------2--2--------------------0----|
--3-----3-----3-----3-----------3-----------0-------|
----------------------------------------------------|
----------------------------------------------------|


--3-----------0-----------------0-------------------|
--------------3-----------3--------3--3-----1-------|
-----------------------0--------------------0-------|
--------2-----------2-----------------2-------------|
--3-----------------------3-------------------------|
----------------------------------------------------|


--------------------------------------0-------------|
--1-----------1-----------3-----------1-------------|
--------------2--------2--2--------------------0----|
--3-----3-----------3-----------3-----------0-------|
----------------------------------------------------|
----------------------------------------------------|


--3-----------3h-0--------------0-------------------|
--1-----------1-----------3--------3--3-----1-------|
-----------------------0--------------0-----0-------|
--------2-----------2-------------------------------|
--3-------------------------------------------------|
--------------------------3-------------------------|


--------------0-----------------------0-------------|
--------------1-----------0--------------------0----|
--------2-----------2-----------0-------------------|
--2-----------------------------------------2-------|
--0-------------------------------------------------|
--------------------------3-------------------------|


--------------------0-------------------------------|
--------0-----1-----------1-------------------------|
--2-----------2--------2----------------------------|
--2-----------------------2-------------------------|
----------------------------------------------------|
----------------------------------------------------|


VERSE 2:
--0h-1--------1h-0--------------------0-------------|
--3-----------3-----------0h-1--------1-------------|
-----------2-----------2--2-------------------------|
--0-----0-----------0-----------2-----------2-------|
--------------------------0-------------------------|
----------------------------------------------------|


----------------------------------------------------|
-----------------------------------------------1----|
--0h-2--2-----2-----0--------------0--------0-------|
--3-----3-----3-----------0h-2--2-------------------|
--------------------------3-----------0h-3----------|
----------------------------------------------------|


--------------1h-0--------------------0-------------|
--------------3-----------0h-1--------1-------------|
--------2-----------2-----2-------------------------|
--0-----------------------------2-------------------|
--------------------------0-------------------------|
----------------------------------------------------|


--------------0-----------------------0-------------|
--1-----------1-----------1-----------1-------------|
--2-----------------------0-------------------------|
--3-----3-----------3-----------2-----------0-------|
-----------------------0--3-------------------------|
----------------------------------------------------|


--0-----1-----------0-------|
--3-----3-----1-----1-------|
--------------2-------------|
--0--0-----0-----2-----2----|
--------------0-------------|
----------------------------|


----------------------------------------------------|
-----------------------------------------------1----|
--0h-2--2-----2-----0--------------0--------0-------|
--3-----3-----3-----------0h-2--2-------------------|
--------------------------3-----------0h-3----------|
----------------------------------------------------|


--------------1h-0--------------------0-------------|
--3-----------3-----------1-----------1-------------|
-----------2-----------2--2-------------------------|
--0-----0-----------0-----------2-----------2-------|
--------------------------0-------------------------|
----------------------------------------------------|


--------------------------------------0-------------|
--------------1-----------1-----------1-------------|
--2-----2-----------0h-2----------------------------|
--3-----3-----------------------2-------------------|
--------------------------3-----------3-------------|
----------------------------------------------------|


--0h-1--------1h-0--------------------0-------------|
--3-----------3-----------0h-1--------1-------------|
-----------2-----------2--2-------------------------|
--0-----0-----------0-----------2-----------2-------|
--------------------------0-------------------------|
----------------------------------------------------|


----------------------------------------------------|
--------------------------------------1-------------|
--0h-2--2-----2-----0-----0-----------0-------------|
--3-----3-----3-----------------2-----------2-------|
--------------------------3-------------------------|
----------------------------------------------------|


--1-----------3-------------|-------|
--3-----3-----------3-------|-------|
--------2-------------------|-------|
--0--0--------0-------------|--3----|
----------------------------|-------|
----------------------------|-------|


--------------------0-------------------------------|
--------------1-------------------------------------|
--------2-------------------------------------------|
--3--------------------3L-3-------------------------|
----------------------------------------------------|
----------------------------------------------------|

The second chorus is just strumming these chords:

F F C G

I recommend playing it like this:
E |--------------------0--0----|--3--3--3--3--3--3--3--3----||
B |--1--1--1--1--3--3--3--3----|--1--1--1--1--0--0--0--0----||
G |--2--2--2--2--2--2--2--2----|--0--0--0--0--0--0--0--0----||
D |--3--3--3--3--3--3--3--3----|--2--2--2--2--0--0--0--0----||
A |----------------------------|--3--3--3--3--2--2--2--2----||
E |----------------------------|--------------3--3--3--3----||

Play it 3 times, and end with

A         Em/G (3x2000)    F
(Safe......and.............sound)

Then, for the ¨oooooh¨ part, it’s the same chords as the chorus, just
play them twice as long.

Afterwards:
E |--3-----------3-----------------------3-------------|
B |--1-----------1-----------3-------------------------|
G |--------------2--------2--2--------------------0----|
D |--3-----3-----------3-----------3-----------0-------|
A |----------------------------------------------------|
E |----------------------------------------------------|


--3-----3-------------------|
--------1-----3-------------|
--------------0-------------|
-----2-----2----------------|
--3-----------2-------------|
----------------------------|


--3-----------3-----------------------3-------------|
--1-----------1-----------3-------------------------|
--------------2--------2--2--------------------0----|
--3-----3-----------3-----------3-----------0-------|
----------------------------------------------------|
----------------------------------------------------|


--3-----------3h-0----------------------------------||
--------------1-----------3-------------------------||
-----------------------0--0-------------------------||
--------2-----------2-------------------------------||
--3-----------------------2-------------------------||
----------------------------------------------------||


Like the chorus:

F F C G
A Em/G F

The final set of ¨ooohhs¨

F F C G x 5

End with single strums on F,C, and G.


THE END


taylor swift safe and sound g!
Print tab

Other versions

Safe And Sound
(Ver2) tabs


Other media

Safe And Sound chords
Safe And Sound
(Ver2) chords

Safe And Sound
(Ver3) chords

Safe And Sound
(Ver4) chords

Safe And Sound
(Ver5) chords


Also by taylor swift

Can I Go With You chords
Safe And Sound
(Ver2) tabs

Safe And Sound
(Ver3) chords

You Belong With Me tabs


Please rate:
Star rating 1Star rating 2Star rating 3Star rating 4Star rating 5

Rating: 4.2 / 5 [6 votes]