Guitar tabs explorer
Print tab

Slipknot - “Sic“ Guitar tab

Slipknot Sic Guitar tabSlipknot Sic guitar tab. Related pages are Sic Bass Tabs, The Nameless Chords, Psychosocial Chords, Snuff Chords, Vermillion Acoustic Tabs. See all Slipknot tabs. Submit corrected and missing guitar tab here.

Please rate and comment!


ARTIST-SLIPKNOT
SONG-SIC
TABBED BY-NICK BILLINGTON
           seraphim1@uk.dreamcast.com

NOTATION

r-REST
/-SLIDE UP
~ or ~~-VIBRATO

INTRO

 B------------------------------
F#------------------------------
 B-0-0-r-0-0-0-r-0-0-0-r-0-0-0-1-

THEN....

 B-------------------------------------
F#-------------------------------------
 B-0-0-r-0-0-0-0-r-0-0-0-0-r-0-0-0-0-1--

...HERE COMES THE PAIN!

 B--------------
F#--------------   X3
 B-3p2-0-0-1-0-0-

 B-----------------
F#-----------------   x1
 B-3p2-0-0-3p2-0-0-

MAIN RIFF

 B---------------------------  PLAYED WITH
F#---------------------------  REST/MUTES
 B-1-0-0-1-0-1-0-1-0-1-4-3-0--  IN PARTS

INTERLUDE

 B---------------------------------
F#---------------------------------
 B-5-5-5-5-2-2-2-2-4-4-4-4-1-1-1-1--

SECOND INTERLUDE 

             THIS PART PLAYED BY GUITARS
 B--------|-------------1-
F#-5~-----|--6-----------
 B----0-0-|-----7~~-1-1---

THEN

 B--------------------
F#-5-5-5--------------   X3
 B-------6-6-0-6-6-6--

 B---------------------
F#-5-5-5---------------  X1
 B-------0-6-0-6-/10~~--

I'VE JUST BEGUN...

 B--------------- ALSO PLAYED ON U CANT
F#--------------- KILL ME COZ..., BUT WITH
 B-0-0-0---0-0-6- OPEN INSTEAD OF 6th FRET

THIRD INTERLUDE

 B-----------------
F#-------1---------
 B-0-3-2---0-3-2---

YOU CANT KILL ME-SECOND PART

 B------------------------------
F#------------------------------
 B-5-2-0-2-0-5-2-0-2-0-5-2-0-2--

OK THATS ALL FOLKS!

Be the first to rate:

Rating: Not rated

Check it out...
Join our new guitar forum & community. Click here!
[Guitar forum|Member images|Member videos]