Not For Me (Ver2) By Slash

Browse chords & tabs: GuitarTabsExplorer / S / Slash

Guitar Tabs with Lyrics


Print tab
Intro:
E|-------------|--------5~-----|-------------|-------3~----|-------------|
B|-7--b8r7-----|-6~-----8b10~--|-5---b6r5----|-4~----6b8~--|-3--b4r3-----|
G|-7-------7---|-8b10~---------|-5--------5--|-6b8~--------|-3-------3---|
D|-7---------7-|---------------|-5----------5|-------------|-3---------3-|
A|-------------|---------------|-------------|-------------|-------------|
E|-------------|---------------|-------------|-------------|-------------|

  C#5          C#m             B5            Bm            A5
E|-------------|---------------|-------------|-------------|-------------|
B|-------------|-6-------------|-------------|-4-----------|-------------|
G|-7-----------|-7-------------|-5-----------|-5-----------|-3-----------|
D|-7-----------|-7-------------|-5-----------|-5-----------|-3-----------|
A|-5-----------|-5-------------|-3-----------|-3-----------|-1-----------|
E|-------------|---------------|-------------|-------------|-------------|

E|--------------|--------------|
B|-2~----6~-----|-6~~~---8~~~--|
G|-4b6~--8b10~--|-8b10~--10b12~|
D|--------------|--------------|
A|--------------|--------------|
E|--------------|--------------|

  Am             E5     F#5
E|--------------|--------------|
B|-2------------|--------------|
G|-3------------|--------------|
D|-3------------|-3------5-----|
A|-1------------|-3------5-----|
E|--------------|-1------3-----|

Parte do verso acústico  - (0:23 -1:01)

    Slight rhythm changes throughout
E|---------------|---------------|---------------|----------------------|
B|---------------|-------------0-|-1-------------|----------------------|
G|-0-------------|-2-----2-2-2-0-|-0-----0-0-0-0-|----------------------|
D|-4-----4-4-5-4-|-3-----3-3-3-3-|-0h2---2-2-3-2-|-1---1--0---0---------|
A|-5-----5-5-5-5-|-3-----3-------|-3-----3-3-3-3-|-1---1--1---1---1-0---|
E|---------------|-1-------------|---------------|--------------------3-|

Dirty Sunrise creeping in,
Broken bottles, gilled within, The room is black, The blinds are drawn

 I don't remember anything,
        What I've done, where I've been. Another night has come and gone

Chorus:
E|-2-----2-2-3-2-|----------------|-----------------|---------------------|
B|-3-----3-3-3-3-|-1--------------|-1---------------|---------------------|
G|-2-----2-2-2-2-|-2------2-0-----|-0---------------|---0-------3---------|
D|---------------|-3----------3---|-0h2---3p2-2-0h2-|-1---1---0-----------|
A|---------------|-3----3-------3-|-------------3---|-1-----1-1---1-1-0---|
E|---------------|----------------|-----------------|-------------------3-|

   This is Not for Me, no....  4x

   Anymore

repeat last chors
E|---------------|-1--------------|-----------------|---------------------|
B|-3-------------|-1--------------|-1---------------|---------------------|
G|-2-----2-2-2p0-|-2------2-0-----|-0---------------|---0-----3--3--------|
D|-0-----0-0-0---|-3----------3---|-0h2---3p2-2-0h2-|-1---1---3-----------|
A|-0-------------|-3----3-------3-|-3-----3---3-3---|-1-----1-1-----1-0---|
E|---------------|-1--------------|-----------------|-------------------3-|

Repita verso e refrão,  Chorus final é repetida uma vez

Lyrics:
 The devil smiles and laughs at me,
Says you'll be back, just wait and see,
You know I've heard this all before,

And I say,
You can keep your high life in the hills,
Your cocaine lies and whiskey thrills,
I don't need you anymore,

This is not for me, no,
This is not for me, no,
This life is not for me, no,
This is not for me, no,
Oh oh oh

Bridge - Lead Guitar

   E5                B5                         F#5        PM
E|-----------------|--------------------------|----------------------|
B|------------1----|--------------------------|----------------------|
G|---------0h2-2p0-|-0-------------------0----|----------------------|
D|-3--3--3---------|-2----2-----3p2---0h2-2p0-|-0----0---------------|
A|-3--3--3---------|-3----3---3-3---3---------|-2----2--------3p2--0-|
E|-1--1--1---------|---------PM---------------|-3----3-----3-3---3---|

1st bridge final          2nd Bridge final
   A5                             A5
E|-------------------|          |-------------|
B|------1------------|          |-1-----------|
G|----3--------------|          |-3-----------|
D|-3-----------------|          |-3-----------|
A|-1-----------1p0---|          |-1-----------|
E|-----------------3-|          |-------------|

Lyrics:
 The only thing that makes me whole again,
Is to stand right here before you in the sun, oh,
I'll keep running til the very end,
For the life I've lived is not the life I want.

Solo Continues, Rhythm plays chords shown, similar to chorus

   C#5                             E5
E|------10____-10----------------|----------------------------------|
B|--------13__---13---------10---|---------13------10-13------------|
G|-12b14-----------b14r12-10-----|-10~~----12b14--------b14r12-10---|
D|----------------------------12-|------12-----------------------12-|
A|-------------------------------|----------------------------------|
E|-------------------------------|----------------------------------|

   B5                                D5       A5
E|------------------13-12----------|----------10~~~~-13-10--10-----------------|
B|-----------------------13--11-13-|-11~~~~~--13b15~----------13p10------------|
G|-12b14-10-12~-10-----------------|-13b15~~-----------------------12b14-12-11-|
D|---------------------------------|-------------------------------------------|
A|---------------------------------|-------------------------------------------|
E|---------------------------------|-------------------------------------------|

   C#5                         E5
E|-----13--15b17---15-14-----|-13----15b17---15b17r15-13h15-|
B|-15----15-------------15---|-----15-----------------------|
G|------------------------14-|------------------------------|
D|---------------------------|------------------------------|
A|---------------------------|------------------------------|
E|---------------------------|------------------------------|

   B5                          D5      A5                 C#5
E|-13--12---13--12-----------|-11~-----10~---13---13----|-13~~~~----|
B|-------13-------13---11h13-|-14b16~--13b15~--b15--b15-|-b15~~~----|
G|---------------------------|--------------------------|-----------|
D|---------------------------|--------------------------|-----------|
A|---------------------------|--------------------------|-----------|
E|---------------------------|--------------------------|-----------|

verso final (Distortion used in last bar)

E|-2-----------|-1------------|-0---------|------------------|
B|-3-----------|-3------------|-1---------|------------------|
G|-------------|--------------|-----------|-8--8-------------|
D|-------------|--------------|-----------|-8--8-------------|
A|-------------|--------------|-----------|-6--6-------------|
E|-------------|--------------|-----------|-------6~--6-5-3--|

 Dirty sunrise creeping in,
Broken bottles, gilled within,
In a place I don't belong

(toque Chorus novamente 2x)

SOLO yeahh!!! (over Chorus)

E|-10-------13~---14-13-----|-13----15b17--pb17-15-12h13-|
B|---13b15-------------15---|----------------------------|
G|-----------------------14-|----------------------------|
D|--------------------------|----------------------------|
A|--------------------------|----------------------------|
E|--------------------------|----------------------------|
   Anymore               yeah

E|-12~-----15~---15-13-11h13-|-10-----10~~~~------------------|
B|------13-------------------|-13b15--13b15~~-----------------|
G|---------------------------|----------------pb14r12p10------|
D|---------------------------|--------------------------12p10-|
A|---------------------------|--------------------------------|
E|---------------------------|--------------------------------|
 You can keep your life, I don't want anymore,        yeah

E|------------10--10--10--10-|-----------------10--13-10~~-|
B|-------10-pb15-b15-b15-b15-|----------/10-13-------------|
G|---------------------------|-----------------------------|
D|-12~~----------------------|-----------------------------|
A|---------------------------|-----------------------------|
E|---------------------------|-----------------------------|
 I'm gonna leave it all behind yeah (2x)

E|------10-13p12-13p12-10---|-10~~~~~~~~------------------|
B|-----------------------13-|-13b15~~~~~-13b15r13p10------|
G|--------------------------|-----------------------12p10-|
D|--------------------------|-----------------------------|
A|--------------------------|-----------------------------|
E|--------------------------|-----------------------------|
  I don't want no more, don't want no more

E|-15-15-13~~~--------13----|-18~-18~-18~~~~--20----|
B|--------------13-15----15-|-----------------------|
G|--------------------------|-----------------------|
D|--------------------------|-----------------------|
A|--------------------------|-----------------------|
E|--------------------------|-----------------------|
  Yeah yeah yeah.

FIM:

Lead
E|-20b22~~---------15-|-14~~~~~~-----------|
B|--------------------|--------------------|
G|--------------------|--------------------|
D|--------------------|--------------------|
A|--------------------|--------------------|
E|--------------------|--------------------|

 Rhythm (2 parts, notes ring out)
E|--------------------|--------------------|
B|------------------3-|--------------------|
G|-7--------0h2p0-----|-2------------------|
D|-7--------------4---|--------------------|
A|-5------------------|--------------------|

The End                                                      The End


Be the first to rate:
Star rating 1Star rating 2Star rating 3Star rating 4Star rating 5

Rating: Not rated



Other versions

Not For Me tabs
Not For Me Acoustic tabs


Also by slash

Gotten chords
No More Heroes intro
Not For Me tabs
Mother Maria chords
The Godfather intro
Far And Away tabs
Bent To Fly chords
Saint Is A Sinner
Too solo