Guitar tabs explorer
Print tab

Frank Sinatra - “My way“ Bass tab

Frank Sinatra My way Bass tabFrank Sinatra My way bass tab. Related pages are My Way Video Tutorial, My Way (Ver2) Chords, My Way Chords, Fly Me To The Moon Video Tutorial, Girl From Ipanema Video Tutorial. See all Frank Sinatra tabs. Submit corrected and missing bass tab here.

Please rate and comment!


my way_frank sinatra

TablEdited by Jan Bjorklund   <jani_bjorklund@yahoo.se>
You are welcome to request for tabs!
Fingering and positions as suggested by TablEdit, please use common sense.


TablEdited by Jan Bjorklund
Tuning : E A D G 	Time Signature: 4/4

  |               |               |               |
|----------------------------------------------------------------|
|------------0-------------------------0-------0-----------------|
|----------------------------------------------------------------|
|----------------------------------------------------------------|

  |               |               |               |
|----------------------------------------------------------------|
|------------------0-------------------------0-------0-----------|
|----------------------------------------------------------------|
|----------------------------------------------------------------|

  |               |               |               |
|----------------------------------------------------------------|
|------------------------0-------------------------0-------0-----|
|----------------------------------------------------------------|
|----------------------------------------------------------------|

  |               |               |               |
|----------------------------------------------------------------|
|----------------------------------------------------------------|
|------------------------------4-------------------------4-------|
|----------------------------------------------------------------|

  |               |               |               |
|----------------------------------------------------------------|
|----------------------------------------------------------------|
|4-----------------------------------3-------------------------3-|
|----------------------------------------------------------------|

  |               |               |               |
|----------------------------------------------------------------|
|----------------------------------------------------------------|
|------3-----------------------------------2---------------------|
|----------------------------------------------------------------|

  |               |               |               |
|----------------------------------------------------------------|
|----------------------------------------1-------2---------------|
|----2-------2---------2-------4---------------------------------|
|----------------------------------------------------------------|

  |               |               |               |
|----------------------------------------------------------------|
|----------2---------2---------------------------------0---------|
|----------------------------------------------------------------|
|----------------------------------------------------------------|

  |               |               |               |
|----------------------------------------------------------------|
|----------------0---------0-------------------------------------|
|------------------------------------------------------------4---|
|----------------------------------------------------------------|

  |               |               |               |
|----------------------------------------------------------------|
|----------------------------------------------------------------|
|----------------------4---------4---------------0---------------|
|----------------------------------------------------------------|

  |               |               |               |
|----------------------------------------------------------------|
|--0-------------------------0---------0-------------------------|
|----------------------------------------------------0-0---------|
|----------------------------------------------------------------|

  |               |               |               |
|----------------------------------------------------------------|
|--------0-------------------------0---------0-------------------|
|0---------------------------------------------------------------|
|----------------------------------------------------------------|

  |               |               |               |
|----------------------------------------------------------------|
|--------------0-------------------------0---------0-------------|
|----------------------------------------------------------------|
|----------------------------------------------------------------|

  |               |               |               |
|--------------------0-------------------------------------------|
|------------0---------------------------------0---------0-------|
|----------------------------------------------------------------|
|----------------------------------------------------------------|

  |               |               |               |
|----------------------------------------------------------------|
|--------------------------2---------------------------2-------2-|
|----------------------------------------------------------------|
|----------------------------------------------------------------|

  |               |               |               |
|------------------------0-------2-------------------------------|
|------2---------4-----------------------------------------------|
|------------------------------------------------------------0---|
|----------------------------------------------------------------|

  |               |               |               |
|------------------------------2---------2-----------------------|
|----------------------------------------------------------------|
|----0-----------------------------------------------------------|
|----------------------------------------------------------------|

  |               |               |               |
|----------------------------------------------------------------|
|----------------------------------------------0-----------------|
|--0-------0-----------------0-----------------------------------|
|----------------------------------------------------------------|

  |               |               |               |
|----------------------------------------------------------------|
|--------0-------0-----------------------------------0-----------|
|----------------------------------------------------------------|
|----------------------------------------------------------------|

  |               |               |               |
|--------------2-------2-----------------------------------------|
|----------------------------------------------------------0-----|
|--------------------------------0-------0-------0---------------|
|----------------------------------------------------------------|

  |               |               |               |
|----------------------------------------------------------------|
|--------------------0-------0-----------------------------------|
|----------------------------------------------------------------|
|----------------------------------------------------------------|

  |               |               |               |
|----------------------------------------------------------------|
|----------------------------------------------------------------|
|4-------------------------4-------4-----------------------------|
|----------------------------------------------------------------|

  |               |               |               |
|----------------------------------------------------------------|
|----------------------------------------------------------------|
|------3-------------------------3-------3-----------------------|
|----------------------------------------------------------------|

  |               |               |               |
|----------------------------------------------------------------|
|----------------------------------------------------------------|
|------------2-------------------------2-------2---------2-------|
|----------------------------------------------------------------|

  |               |               |               |
|----------------------------------------------------------------|
|----------1-------2-------------------------2-------2-----------|
|4---------------------------------------------------------------|
|----------------------------------------------------------------|

  |               |               |               |
|----------------------------------------------------------------|
|------------------------0-------------------------0-------0-----|
|----------------------------------------------------------------|
|----------------------------------------------------------------|

  |               |               |               |
|----------------------------------------------------------------|
|----------------------------------------------------------------|
|------------------------------4-------------------------4-------|
|----------------------------------------------------------------|

  |               |               |               |
|----------------------------------------------------------------|
|------------------------------------0-------------------------0-|
|--4---------------0---------------------------------------------|
|----------------------------------------------------------------|

  |               |               |               |
|----------------------------------------------------------------|
|--------0---------------------------------0---------------------|
|----------------------0-0---------0-----------------------------|
|----------------------------------------------------------------|

  |               |               |               |
|----------------------------------------------------------------|
|----0---------0---------------------------------0---------------|
|----------------------------------------------------------------|
|----------------------------------------------------------------|

  |               |               |               |
|----------------------------------------------------------------|
|----------0---------0-------------------------------------------|
|----------------------------------------------------------------|
|----------------------------------------------------------------|


m/

Please rate:

Star rating 1
Star rating 2
Star rating 3
Star rating 4
Star rating 5

Rating: 5 / 5 [1 vote]