Guitar tabs explorer
Print tab

The Rolling Stones - “The last time“ Guitar tab

The Rolling Stones The last time Guitar tab

"The Last Time" was the third The Rolling Stones single to reach #1 in the UK and the first written by Jagger/Richards. The single was released in 1965.

Guitars are played by Keith RIchards and Brian Jones. Jones plays the riffs while Richards plays the solo and chords. The song has been covered by numerous other artists including The Who. They recorded it to support Richards and Jagger who had been prisoned for drug charges.

Related pages are The Last Time (Ver2) Chords, The Last Time Chords, Hot Stuff (Ver2) Chords, Tell Me (youre Coming Back) (Ver2) Chords, Mother's Little Helper (Ver3) Chords. See all The Rolling Stones tabs. Submit corrected and missing guitar tab here.

Please rate and comment!


Main riff

   E               D        A
e|-----------------------------------|
B|-------3------5---------3------2---|
G|----/4------4--------2h4-----/2----|
D|-----------------------------------|
A|-----------------------------------|
E|-----------------------------------|

-------------------------------------------------------------------------

E                          D        A	   EDA - Played with riff or open 
chords (2 guitars)

Well I told you once and I told you twice

ETC.

Chorus


A		       D    A  -  Strum chords
Well this could be the last time

ETC.

SOLO

  Lick 1
e|-------------------------------------|
B|----3--------------------------------|
G|-/4---4-2----------------------------|
D|----------2--------------------------|
A|-------------------------------------|
E|-------------------------------------|

  Lick 2
e|-------------------------------------|
B|---8-10-10b-10b-10-8-----------------|
G|-9-------------------9---------------|
D|-------------------------------------|
A|-------------------------------------|
E|-------------------------------------|

  Lick 3
e|-14b-14-12---------------------------|
B|-------------------------------------|
G|-------------------------------------|
D|-------------------------------------|
A|-------------------------------------|
E|-------------------------------------|

---------------------------------------------------------------------

Solo structure

E (@ 12th fret)(full baree or partially for entire solo section)
D (@ 10th fret)
A (@ 5th fret)
E (Open)
Lick 1

E (@ 12th fret)
D (@ 10th fret)
A (@ 5th fret)
E (Open)
Lick 2

E (@ 12th fret)
D (@ 10th fret)
A (@ 5th fret)
E (Open)
Lick 1

E (@ 12th fret)
D (@ 10th fret)
A (@ 9th fret)
E (@ 12th fret)
Lick 3

-------------------------------------------------------------

Listen to the recording carefully and it will be quite simple.

Please rate:

Rating: 4.5 of 5

Check it out...
Join our new guitar forum & community. Click here!
[Guitar forum|Member images|Member videos]