Guitar tabs explorer
Print tab

The Rolling Stones - “Start me up“ - Chords

Start me up by The Rolling Stones guitar Chords

The Rolling Stones Start me up ChordsThe Rolling Stones Start me up chords.

Related pages are Start Me Up Video Tutorial, Start Me Up Tabs, Start Me Up (Ver3) Chords, Start Me Up (Ver2) Chords, Start Me Up Bass Tabs.

Submit corrected and missing chords here.

These 'Start me up' chords by The Rolling Stones also include lyrics.

Respect the tabbers, always rate and comment!


Start Me Up ( Jagger/Richards )
       Rolling Stones


       Riff:

       B|---5---6-6-|--5---6-6--|---5-6-5---|
       G|---5---5-5-|--5---5-5--|---5-5-5---|
       D|---5---7-7-|--5---7-7--|---5-7-5---|

       repeat with the rhythm:

       D|--3--5--3-------|
       A|--1--1--1-------|


       {chorus}
       [C] [F] [Eb] [C]
       [C]


       ______________________________________________________________

        ____________________________________________________________

         Excuse me any mistake, it's from memory.


        #Andre Schwantes              andres@vortex.ufrgs.br

                                            Porto Alegre
                                       Rio Grande do Sul, Brasil


My first post to this site, so I hope it looks ok :)

As with a lot of Rolling Stones songs, Keith Richards tunes his guitar to
an 'open G' (low to high: D,G,D,G,B,D) tuning. The  6th (lowest) string is
removed when playing this song. Another more or less trademark of
Richards.

Intro:                       P          M   M
D----|----------------|----------------|----------------|----------------|
B--5-|:-6-6---------5-|--6-6-5-5-5-6---|----------------|--------3-3-3-5:|
G--5-|--5-5---------5-|--5-5-5-5-5-5-0-|3---3---3---3-3-|----3---3-3-3-5-|
D--5-|:-7-7---------5-|--7-7-5-5-5-7-0-|3---5---3---5-3-|--3-5-3-3-3-3-5:|
G--5-|--------------5-|--5-5-5-5-5-5-0-|3---3---3-3---3-|--3-3-3-------5-|

That repeats a few times up until the Chorus. Here is the Chorus
 
Chorus:
  *
D-5-|----------------|--------------------------------|----------------|
B-5-|----5---5-------|--10----10--10--10--------------|----5---5-------|
G-5-|----5---5-7-7/10|--10----10--10--10--8---7---5---|----5---5-7-7/10|
D-5-|----5---5-7-7/10|--10----10--10--10--8---7---5---|----5---5-7-7/10|
G-5-|----5---5-7-7/10|--10----10--10--10--8---7---5---|----5---5-7-7/10|

D |--------------------------------|
B |10------10--10--10--------------|
G |10------10--10--10--8---7---5---|
D |10------10--10--10--8---7---5---|
G |10------10--10--10--8---7---5---|

* = This chord is not really played. You already played it (the last chord
in the intro) The chord is just carried into the chorus.

Note that I have also not tabbed in the lowest string.

P = pull-off.
M = muted note.
/ = slide up.
: = repeat.

Any probs, feel free to mail me.

	Have fun :) 
	Mike.

Be the first to rate:

Star rating 1
Star rating 2
Star rating 3
Star rating 4
Star rating 5

Rating: Not rated