Dirty Old Town Banjo By The Pogues

Browse chords & tabs: GuitarTabsExplorer / P / The Pogues

Guitar Tabs


Print tab
THE POGUES
DIRTY OLD TOWN
BANJO TAB
In the instrumental and in the verseís after that either Jem plays
it in a double quick time and a slightly different pattern or itís
another banjo part or another instrument, you decided. Might be
wrong but it soundís alright when you play along with the song.

VERSE
D|--------------5-----------------5--|-------------5-----------------5--|
B|------3---------------3------------|-----3----------------3-----------|
G|--4---------------4----------------|--4----------------4--------------|
D|-----------------------------------|----------------------------------|
G|----------0----------------0-------|---------0-----------------0------|

D|--------------5-----------------5--|-------------5-----------------5--|
B|------3---------------3------------|-----3----------------3-----------|
G|--4---------------4----------------|--4----------------4--------------|
D|-----------------------------------|----------------------------------|
G|----------0----------------0-------|---------0-----------------0------|

D|--------------2-----------------2--|-------------2-----------------2--|
B|------1---------------1------------|-----1----------------1-----------|
G|--0---------------0----------------|--0----------------0--------------|
D|-----------------------------------|----------------------------------|
G|----------0----------------0-------|---------0-----------------0------|

D|--------------5-----------------5--|-------------5-----------------5--|
B|------3---------------3------------|-----3----------------3-----------|
G|--4---------------4----------------|--4----------------4--------------|
D|-----------------------------------|----------------------------------|
G|----------0----------------0-------|---------0-----------------0------|

D|--------------5-----------------5--|-------------5-----------------5--|
B|------3---------------3------------|-----3----------------3-----------|
G|--4---------------4----------------|--4----------------4--------------|
D|-----------------------------------|----------------------------------|
G|----------0----------------0-------|---------0-----------------0------|

D|--------------4-----------------4--|-------------4-----------------4--|
B|------3---------------3------------|-----3----------------3-----------|
G|--2---------------2----------------|--2----------------2--------------|
D|----------0---------------0--------|---------0-----------------0------|
G|-----------------------------------|----------------------------------|

D|--------------2-----------------2--|-------------2-----------------2--|
B|------0---------------0------------|-----0----------------0-----------|
G|--0---------------0----------------|--0----------------0--------------|
D|----------2---------------2--------|---------2-----------------2------|
G|-----------------------------------|----------------------------------|


INSTRUMENTAL

D|--------------2-----------------2--|-------------2-----------------2--|
B|------1---------------1------------|-----1----------------1-----------|
G|--0---------------0----------------|--0----------------0--------------|
D|-----------------------------------|----------------------------------|
G|----------0----------------0-------|---------0-----------------0------|

D|--------------2-----------------2--|-------------2-----------------2--|
B|------1---------------1------------|-----1----------------1-----------|
G|--0---------------0----------------|--0----------------0--------------|
D|-----------------------------------|----------------------------------|
G|----------0----------------0-------|---------0-----------------0------|

D|--------------3-----------------3--|-------------3-----------------3--|
B|------1---------------1------------|-----1----------------1-----------|
G|--2---------------2----------------|--2----------------2--------------|
D|----------3---------------3--------|---------3-----------------3------|
G|-----------------------------------|----------------------------------|

D|--------------2-----------------2--|-------------2-----------------2--|
B|------1---------------1------------|-----1----------------1-----------|
G|--0---------------0----------------|--0----------------0--------------|
D|-----------------------------------|----------------------------------|
G|----------0----------------0-------|---------0-----------------0------|

D|--------------2-----------------2--|-------------2-----------------2--|
B|------1---------------1------------|-----1----------------1-----------|
G|--0---------------0----------------|--0----------------0--------------|
D|-----------------------------------|----------------------------------|
G|----------0----------------0-------|---------0-----------------0------|

D|--------------5-----------------5--|-------------5-----------------5--|
B|------3---------------3------------|-----3----------------3-----------|
G|--4---------------4----------------|--4----------------4--------------|
D|-----------------------------------|----------------------------------|
G|----------0----------------0-------|---------0-----------------0------|

D|--------------2-----------------2--|----------------------------------|
B|------1---------------1------------|----------------------------------|
G|--2---------------2----------------|--2-------------------------------|
D|----------2--------------2---------|----------------------------------|
G|-----------------------------------|----------------------------------|


Please rate:
Star rating 1Star rating 2Star rating 3Star rating 4Star rating 5

Rating: 2.2 / 5 [6 votes]



Also by the pogues

Dirty Old Town chords
Rain Street chords
Rain Street (Ver2) chords
Thousands Are
Sailing chords

Limerick Rake chords
Danny Boy chords
Fairytale Of New
York tabs

Dirty Old Town
Banjo tabs

Rainy Night In Soho chords
Aisling chords