Guitar tabs explorer

Money by Pink Floyd

Browse chords & tabs: P / Pink Floyd

Bass Guitar Tab


Print tab

7 _  ---4------------------------------
-/  \-----4---------0------------------
4   ]-2-----2---0-2--------------------
   / ---------2------------------------

Part 2:
---------------------------------------
4-4-4---------4-3-2-----------0--------
------4---0-4-------2-----0-2----------
--------2-------------0-3--------------


Bm thing       _
-------- \  / / \
--------  \/  \_/
2-5-4-3-  /\  / \
-------- /  \ \_/

Em thing
-------- \  /  /|
2-5-4-3-  \/  /_|_
--------  /\    |
-------- /  \   |

Bm thing
-------- \  /  /|
--------  \/  /_|_
2-5-4-3-  /\    |
-------- /  \   |

F#m thing      _
-------- \  / / \
--------  \/    /
--------  /\   /
2-5-4-3- /  \ /__

Bm Scale (almost)

4-2-------------
----5-4-2-------
----------5-4-3-
----------------

There ya go.
 The 7/4 at the beginning is the time for that bit, but you already know
it's not 4/4.
-derek

The End                                                  The End

Please rate:
Star rating 1Star rating 2Star rating 3Star rating 4Star rating 5

Rating: 2.5 / 5 [2 votes]