Road To Nowhere By Ozzy Osbourne

Browse chords & tabs:
GuitarTabsExplorer / O / Ozzy Osbourne

Guitar Tabs with Lyrics


Print tab
ROAD TO NOWHERE
                        ---------------

-from the multi-platinum album "No More Tears"
-words and music by Ozzy Osborne, Zakk Wylde, Randy Castillo
-transcription by Carl Culpepper

I AM chord diagramAMAM LEGEND:
H chord diagramHH=HAMMER
P=PULL-OFF
\=SLIDE DOWN
^=VIBRATO
tr^=TRILL
B chord diagramBB=BEND(assume full bend if not noted)
.=palm mute

Tune down 1/2 step
(let ring throughout)
--------2---------------------------3---------------------------------
----3-----3-----------2---------------3-------------------------0-----
------2-----2-----2-----2-------0-------0---------0---------------0---
--0-----------------2-----2-------0-----------0-------------2---------
---------------0--------------------------0-2---2-------------2-------
------------------------------3-----------------------3-2-0-----------


------------3--------------------------------------
--------3-----3------------2-------3-------2-------
----------0-----0------2-----2-------2-------2-----
------------------0------2-----2-2-----2-------2---
---------------------0-------------------0-------0-
--0-2-3--------------------------------------------
                     . . . . . . . . . . . . . . .  
intro solo
        ^^     ^^                               ^^^^^
-----------------------P-------------------------------------------
---H chord diagramHH--P-----B chord diagramBB------22-19---B chord diagramBB---B chord diagramBB---------------------------B chord diagramBB-------
-19-21-19--21(21)---------21--21(21)19-------H chord diagramHH-19---19----21(21)19-
-----------------------------------------19-21---------21----------
-------------------------------------------------------------------
-------------------------------------------------------------------

    ^^^  ^^^  ^^^  ^^^                                            ^^^
----H chord diagramHH----------------------------------------------------------------
19-20---19--------------B chord diagramBB---22-B chord diagramBB--22-B chord diagramBB------------------H chord diagramHH--P---B chord diagramBB-----
-------------21---19---21-----21----21--------------19-21-19--21(21)-
--------------------------------------------H chord diagramHH-19-21------------------
----------------------------------------19-21------------------------
---------------------------------------------------------------------

                                               ^^^  ^^^  ^^^ ^^^
--B chord diagramBB----------P--12-----------------------------H chord diagramHH------------------
-20(20)--20-19------B chord diagramBB---22-B chord diagramBB---22-B chord diagramBB--------19-20---19-------------
-------------------21-----21-----21(21)19---------------21---19---
------------------------------------------------------------------
------------------------------------------------------------------
------------------------------------------------------------------

     tr^^^^^^^^^^^^^^^^^^^^^^^^^^^^^^^^^^^^^^^^^^^^^^^
-------------------------------------------------------
-(14-15)14\-----(12-14)12\-----(10-12)10\-----(8-10)8--
-(12-14)12\-----(11-12)11\-----(-9-11)-9\-----(7--9)7--
-------------------------------------------------------
-------------------------------------------------------
-------------------------------------------------------

   ^^^^^^   ^^^^^^  ^^^^^^  ^^^^  ^^^^^^^^^^^^^^^^^^^^^^^^
------------------------------||--------------------------
--\7-------\5------\3------\2-||--3-----------------------
--\6-------\4------\2------\0-.|--------------------------
------------------------------.|--4-----------------------
------------------------------||--------------------------
------------------------------||--------------------------
                 (return to start)   (fill)


------------------------B10 chord diagramB10B10-B10 chord diagramB10B10-B10 chord diagramB10B10-B10 chord diagramB10B10(10)\--------------
------------------------9---9---9---9--(-9)\--------------
-------------------------------------------------5-----5--
-------------------------------------------------5-----5--
----------------------------------------------3-----3--3--
----------------------------------------------------------
                                              .     .  
searching for the key.                             the wreckage of 

                                   P.H.^^^^
---------------------------------------------------------
-------------------3-------------------------------------
-------------------2--5--4---------------------5-----5---
-------------------0--5--4--2------3(.5)-------5-----5---
-------------------0--3--2--0-----------5---3-----3--3---
-3-0-2-3--5-0-2-3--------------3-0-----------------------
 . . . .  . . . .              . .          .     .
of my past......


-----------------------0---------------------------------------------
--------------------3--3---3---------------------------------3-------
--------------------2--2---2-----5-----5---------------------2--5--4-
--------------------0--0---0-----5-----5---------------------0--5--4-
-------------------------------3----3--3---------------------0--2--2-
--3-0-2-3--5-0-2-3-------------------------3-0-2-3--5-0-2-3----------
  . . . .  . . . .             .    .      . . . .  . . . .
leave me alone.........


-------------3----------------------------------
------3------3-------------------------------3--
------0---2--0-------------------------------2--
--2---0---2--0--------------5-5-5-4--4-4-2-2-0--
--0-------0-------------------------------------
------3------3---------------------------------- (next solo)
   be a  dream?  the road.....

-basically all the riffs are here, only intro solo is included

The End                                                      The End


Be the first to rate:
Star rating 1Star rating 2Star rating 3Star rating 4Star rating 5

Rating: Not rated



Also by ozzy osbourne

Mr Crowley bass tabs
Crazy Train Live
Intro tabs

Crazy Train bass tabs
Crazy Train tabs
Crazy Train intro
Now You See It tabs
So Tired chords
Steal Away The Night tabs
No Bone Movies tabs
Killer Of Giants tabs