Guitar tabs explorer
Print tab

Willie Nelson - “Ac cent tchu ate the positive“ Guitar tab

Willie Nelson Ac cent tchu ate the positive guitar tab. Related pages are Family Bible Chords, Stay All Night Chords, City Of New Orleans Chords, Mendocino County Line Chords, Both Ends Of The Candle Chords. See all Willie Nelson tabs. Submit corrected and missing guitar tab here.

Please rate and comment!


Artist: Willie Nelson
Album: All The Songs Ive Loved Before
Song: Ac-Cent-Tchu-Ate The Positive
Tabed For Tune: E
Tabed By Janne Tschokkinen
E-Mail: janne.tschokkinen@kolumbus.fi
Site: http://www.kolumbus.fi/janne.tschokkinen

!!!These tabs were created without any kinds of money making 
purposes and are to be used only for educational purposes!!!

!!!Do not re-publish this tab without permission!!!
--------------------------------------------------------------

Capo 1st Fret

Intro: w/Fig.1
D | A | D | A | D |

Verse 1:
|: D | A | D | A | D :|

Chorus:
| D | G D | D | H | E A |

Verse 2:
| D | A | D | A | D |

Bridge: w/Fig.2
| D | A | D | A | D |

Chorus:
| D | G D | D | H | E A |

Verse 3:
| D | A | D | A | D | A | D | A | D |


Fig.1
            D                                  A
E|-----------------------|---------------------------|
H|-----------------------|---------------------------|
G|----------9h11-9h11----|-10-11-10-11-10------9--9--|
D|----9-12---------------|----------------12-9-------|
A|-12--------------------|---------------------------|
E|-----------------------|---------------------------|

                         D
E|---------------------|--------------|--------------------|
H|---------------------|--------------|------10------------|
G|-7-9-7-11p9----------|-9h11-9h11----|-9-11----11---------|
D|------------12-9-----|--------------|------------12-9----|
A|------------------12-|--------------|-----------------12-|
E|---------------------|--------------|--------------------|

   A              Fig.1 End
E|------------------------|
H|------------------------|
G|-9-9--9-11-10-9---------|
D|----------------11-12---|
A|------------------------|
E|------------------------|



Fig.2
            D                                  A
E|-----------------------|---------------------------|
H|-----------------------|-------10------------------|
G|----------9h11-9h11----|-10-11----11-9-------9--9--|
D|----9-12---------------|----------------12-9-------|
A|-12--------------------|---------------------------|
E|-----------------------|---------------------------|

                         D
E|---------------------|--------------|--------------------|
H|---------------------|--------------|------10------------|
G|-7-9-7-11p9----------|-9h11-9h11----|-9-11----11---------|
D|------------12-9-----|--------------|------------12-9----|
A|------------------12-|--------------|-----------------12-|
E|---------------------|--------------|--------------------|

   A              Fig.2 End
E|------------------------|
H|------------------------|
G|-9-9--9-11-10-9---------|
D|----------------11-12---|
A|------------------------|
E|------------------------|

Please rate:

Rating: 1 / 5 [1 vote]