Guitar tabs explorer
Print tab

Jason Mraz - “I won't give up (Ver3)“ Chords

Jason Mraz I wont give up (Ver3) ChordsJason Mraz I wont give up (Ver3) chords. Related pages are I Wont Give Up Tabs, I Wont Give Up (Ver2) Chords, I Wont Give Up Chords, The Woman I Love Chords, Make It Mine (Ver2) Chords. See all Jason Mraz tabs. Submit corrected and missing chords here.

These 'I wont give up (Ver3)' chords by Jason Mraz also include lyrics.

Please rate and comment!


Intro:
              G    D                  G    D

E|---------------------------------------------------
B|---------------------------------------------------
G|------------4-4--2-2---2-2----------4-4--2-2---2---
D|-0--0-0-2-4-5-5--4-4---4-4----0-2-4-5-5--4-4---4---
A|------------5-5---------------------5-5------------
D|---------------------0-----0-----------------0-----

              G    D                 A     A4    A
E|---------------------------------------------------
B|-----------------------------------------3-----2---
G|------------4-4--2-2---2-2---------2-2---2-2---2---
D|-0--0-0-2-4-5-5--4-4---4-4---4\2-0-2-2-----2-------
A|------------5-5--------------------0---0-----0-----
D|---------------------0-----0-----------------------

Verses:

   G    D                   G    D
E|---------------------------------------------------
B|---------------------------------------------------
G|-4-4--2-2---2-------------4-4--2-2---2-------------
D|-5-5--4-4---4--0--0-0-2-4-5-5--4-4---4-------------
A|-5-5----------------------5-5----------------------
D|----------0------------------------0---------------

               G    D                A9   A4    A
E|---------------------------------------------------
B|----------------------------------------3-----2----
G|-------------4-4--2-2---2----------2-2--2-2---2----
D|-0--0-0-2-4--5-5--4-4---4--2-4-2-0-2-2----2--------
A|-------------5-5-------------------0---0----0------
D|----------------------0----------------------------


Verse 1:
                 G    D
When I look into your eyes
                       G      D
It's like watching the night sky
               G  D
Or a beautiful sunrise
                     A9 A4 A
There's so much they hold
                   G    D
And just like them old stars
                  G       D
I see that you've come so far
                  G   D
To be right where you are
                A9 A4 A
How old is your soul?

Chorus 1:
             G     D
I won't give up on us
             Bm       A9
Even if the skies get rough
               G       D
I'm giving you all my love
                  A9 A4 A
I'm still looking up

Verse 2:
                        G     D
And when you're needing your space
           G    D
To do some navigating
             G         D
I'll be here patiently waiting
                A9 A4 A
To see what you find

Chorus 2:
              G          D
Cos even the stars, they burn
          Bm          A9
Some even fall to the earth
         G      D
We got a lot to learn
                A9 A4 A
God knows we're worthy
                (C9/5- C9) 2x
No I won't give up

Bridge:
        Em
I don't wanna be someone who walks away so easily
                                 A9       A4 A
I'm here to stay and make the difference that I can make
    Em
Our differences they do a lot to teach us how to use
The tools, the skills we've got
              A9       A4 A
Yeah we got a lot at stake
           C
And in the end, you're still my friend
At least we didn't tend
                                              C#
For us to work we didn't break, we didn't burn
We had to learn how to bend
Without the world caving in
C                        C#
I had to learn what I got, and what I´m not
        D   D4   D
And who I am

Chorus Final:
             G     D
I wo't give up on us
             Bm       A9
Even if the skies get rough
               G       D
I'm giving you all my love
                  A9 A4 A
I'm still looking up

             G     D
I won't give up on us
              Bm         A9
God knows I´m tough, he knows
         G      A9
We got a lot to learn
                A9 A4 A
God knows we're worthy

             G     D
I won't give up on us
             Bm       A9
Even if the skies get rough
               G       D
I'm giving you all my love
                  A9

Please rate:

Star rating 1
Star rating 2
Star rating 3
Star rating 4
Star rating 5

Rating: 5 / 5 [1 vote]