Baby Please Don't Go By Van Morrison

Browse chords & tabs: GuitarTabsExplorer / M / Van Morrison

Guitar Tabs with Lyrics


Print tab
Song: Baby Please Don't Go
Artist: Van Morrison
Album: Them Featuring Van Morrison
Transcribed by Luciano Aldana  aldanaluciano@juno.com

Tablature explanation:
/=slide up
\=slide down
b=bend half
^=bend full
X=Mute or dump note
Note: You may use the capo on the 1st fret and change the tab
accordingly, i.e., 4 becomes 3, 1 becomes 0, etc.

E-------------------------4------1------------------------------1----
B---1-----4------1-----------------------4----------1----------------
G--------------------------------------------------------------------
D--------------------------------------------------------------------
A--------------------------------------------------------------------
E--------------------------------------------------------------------


E-----------------4------1--------------------------------------------
B---1-----4----------------------4------------------------------------
G----------------------------------------4----------------------------
D---------------------------------------------------------------------
A---------------------------------------------------------------------
E---------------------------------------------------------------------


E-------------4------------1-----1----------------------1------------
B---1----4-------4-----1------------4-----4X-------------------------
G----------------------------------------------------3b------3-------
D-----------------------------------------------------------------3--
A--------------------------------------------------------------------
E--------------------------------------------------------------------


E-------------------------------------------------------------------
B-------------------------------------------------------------------
G---1---------3-----------------------------------------------------
D------------------3-------3----3-----------------------------------
A-----------------------------------3-------------------------------
E-------------------------------------------2-------1---------------

(play four times before singing begins)
E-------------------------------------------------------------------
B-------------------------------------------------------------------
G-------------------------------------------------------------------
D-----------------1-------------------------------------------------
A---1---/3-----------3----------------------------------------------
E-------------------------------2-----1-----------------------------

baby please don't go . . . (repeat 2 times)
E-----------------1-------------------------------------------------
B---1------4--------------------------------------------------------
G-----------------------3-------------------------------------------
D-----------------------------3------3------------------------------
A-------------------------------------------------------------------
E-------------------------------------------------------------------


bay please don't go down to New Orleans, you know I love you, so
baby please don't go
E---4-------1---------------------13\--------1-------1--(play twice)
B-------------------------------------------------------------------
G-------------------------------------------------------------------
D-------------------------------------------------------------------
A-------------------------------------------------------------------
E-------------------------------------------------------------------

when you mine dog gone ...  (repeat twice)
E---1-------------------------------------------
B--------1--------------------------------------
G---------------3-------------------------------
D--------------------3-----3--------------------
A------------------------------------------------
E------------------------------------------------

when you mind dog gone at the county farm you had your shackles on
baby please don't go...
E-1-----1------13\-----1-------4--------1--------13\---------1----
B----------------------------------------------------------------
G----------------------------------------------------------------
D----------------------------------------------------------------
A----------------------------------------------------------------
E----------------------------------------------------------------

don't be a dog ... (repeat 2 times)
don't be a dog,  get your way down here, baby please don't go
E-1-----1------13\-----1------------4--------1-----------13\---1---
B-----------------------------------------------------------------
G-----------------------------------------------------------------
D-----------------------------------------------------------------
A-----------------------------------------------------------------
E-----------------------------------------------------------------

well all right! 
E--1---1------------------------4------1--------------------------
B---------------1-----4-------------------------4-----------------
G------------------------------------------------------4----------
D-----------------------------------------------------------------
A-----------------------------------------------------------------
E-----------------------------------------------------------------


E-------------4------------1-----1----------------------1------------
B---1----4-------4-----1------------4-----4X-------------------------
G----------------------------------------------------3b------3-------
D-----------------------------------------------------------------3--
A--------------------------------------------------------------------
E--------------------------------------------------------------------


E-------------------------------------------------------------------
B-------------------------------------------------------------------
G---1---------3-----------------------------------------------------
D------------------3-------3----3-----------------------------------
A-----------------------------------3-------------------------------
E-------------------------------------------2-------1---------------

(The rest is pretty much a repetition of the same riffs)


Be the first to rate:
Star rating 1Star rating 2Star rating 3Star rating 4Star rating 5

Rating: Not rated



Other versions

Baby Please Dont Go
(Ver2) tabs


Also by van morrison

The Way Young Lovers
Do chords

Baby Please Dont Go
(Ver2) tabs

Sweet Thing (Ver2) chords
Crazy Love bass tabs
Domino chords
The Great Deception chords
Its All In The Game chords
My Lonely Sad Eyes chords
Brown Eyed Girl tabs