Dreamz - Vaarthinngal By Misc Soundtrack

Browse chords & tabs: GuitarTabsExplorer / M / Misc Soundtrack

Guitar Tabs with Lyrics


Print tab
From the Malayalam Suresh gopi starrer “Dreamz”
By Sanjeev George and Thomas George
Contact at sanjeevgeorge123@yahoo.co.in


Notation for tab
h  :  hammer on
p  :  pull off
/  :   slide up
\  :   slide down
v :   vibrato
b :   bend
r  :   release
.  :   play and mute with fretting hand


Verse

Dm
Ooo ooo oo ooo
   Dm
varthinkal thellalle
   F
varaveena kudamalle
  G                           Dm
manathe manpeda pennu
                            G                        Dm
ooo ooo ooo .. manathe manpeda pennu
      C                             Dm
padumbol kuyilanu panineer poovithalanu
      C                             Dm
padumbol kuyilanu panineer poovithalanu
  F                           G
mizhi randum mainakalanu
   C                         F
chekeran muthe neramayo
   C                         Dm
chekeran muthe neramayo

Then Dm  C   G   Dm chords for solo

Then Flute Solo 1
This is tabbed for guitar

e|----------------------------------------------------------|
B|--17b18v-----15b18r-15b18r-15b18r-15b18r---18v—18/20------|
G|----------------------------------------------------------|
D|----------------------------------------------------------|
A|----------------------------------------------------------|
E|----------------------------------------------------------|

e|--15b17r-15b17r-15b17r---------------------------|
B|-----------------------15b16r--------------------|
G|-------------------------------17-15-14----------|
D|----------------------------------------17-15v---|
A|-------------------------------------------------|
E|-------------------------------------------------|



Stanza 1

    Dm
manikya kavum chutti
       F
manimanjin koodum thedi
     G                        Dm
vanathe vanampadi pariva
   Dm
manikya kavum chutti
       F
manimanjin koodum thedi
     G                        Dm
vanathe vanampadi pariva
        Am            Dm          G                   C
muthharam moodan neeyenthe kathu ninnilla
      Am            Dm           G                 C
moovanthi cheppil nin moham chanthaninjilla
       C                       G
veyilarum venal koottil
     G                            F
chirakolum kattin chillamel oh
      G                   Dm
arali poo kadin medayil

Verse again
varthinkal thellalle
varaveena kudamalle
manathe manpeda pennu
ooo ooo ooo .. manathe manpeda pennu

Flute solo 2 played with chords Dm   Dm   C   Am
Tabbed for guitar

e|--------------------/13----------------------------------------------|
B|------13—13/15v----------13—13/15v----------13—13/15v-----13---------|
G|--14-----------------------------------/14--------------------14v----|
D|---------------------------------------------------------------------|
play twice
A|---------------------------------------------------------------------|
E|---------------------------------------------------------------------|


Stanza 2

   Dm
kannadi chillil kathum
    F
shararanthal nalam pole
   G                                 Dm
minnara tharam minni kankalil
   Am            Dm           G                C
pattonnum padan nee enthe kootu vanilla
  Am            Dm               G              C
panchara chundal ee poovin chendil mutheela
    C                    G
mulayola peeli thoppil
    G                            F
chirakala poonthen thulliyil oh..
    G                             Dm
moodal manjurukum sandhyayil

Back to verse

This riff is played throughout the song (Listen to it to figure out where)
e|------------------------------------------|
B|------------------------------------------|
G|---7-----5h7-7-----5-5-7-----5h7-7--------|
D|---7-----5h7-7-----5-5-7-----5h7-7--------|
A|-------5-------------------5--------------|
E|------------------------------------------|
                           .                 .                 .


Be the first to rate:
Star rating 1Star rating 2Star rating 3Star rating 4Star rating 5

Rating: Not rated



Also by misc soundtrack

Mission Impossible
Theme tabs

Star Wars The Luke
Skywalker Song tabs

Three Amigos Blue
Shadows tabs

Sabka Katega Theme chords
Space Jam chords
Dr Horribles
Sing-along Blog -
Brand New Day chords

Sherlock Bbc Theme tabs
Moon River chords
Oklahoma Musical -
Oh What A Beautiful
Mornin chords

Song Of The South -
Zip A Dee Doo Dah chords