Lo How A Rose Eer Blooming By Misc Christmas

Browse chords & tabs: GuitarTabsExplorer / M / Misc Christmas

Guitar Chords with Lyrics


Print tab
LO HOW A ROSE E'ER BLOOMING (Traditional)

This is a great Christmas tune.  You can play partial or full chords -
both sound great.  I've provided a tab, but strumming works well also.  
The first F is a hard reach - if you want you can just play standard F,
or if you're quick, use xx7565.

I prefer to play this with the capo at the fourth fret - it gives it a
nice ring.  Enjoy.



! means release, ~ means sustain


Main theme
                                       Rel  
  C       G   C   F   C   G~~~~~~~ A-   !  F       C   G          

e:3-------3---3---5---3---3-------|0-------1-------0---------------|
B:1-------0---1---1---1---0-------|1-------1-------1---3-------1---|
G:0-------0---0---2---0---0-------|2-------2-------0---0-----------|
D:2-------0---2---3---2---0-------|2-------3-------2---0-----------|
A:3-----------3-------3---2-------|----------------3---2-----------|
E:--------3---------------3-------|--------------------3---3-------|

  G       C

e:--------------------------------|
B:1---0---1-----------------------|
G:0-------0-----------------------|
D:--------2-----------------------|
A:--------3-----------------------|
E:3-------------------------------|



Repeat



Bridge

      C   G   E-  A-     G D G

e:----0-----------------|---------------|
B:----1---3---0---1-----|----0----------|
G:----0---0---0---2---2-|0-2-0----------|
D:----2---0---2---2-----|0--------------|
A:----3---2---2---------|---------------|
E:--------3-------------|3---3----------|


Play the Main Theme 1x more to end the refrain.


---------------------------------------------------------------------


Be the first to rate:
Star rating 1Star rating 2Star rating 3Star rating 4Star rating 5

Rating: Not rated



Also by misc christmas

Jingle Bell Rock chords
Froehliche Weihnacht
Ueberall chords

Little Drummer Boy chords
Winter Wonderland chords
Twelve Days Of
Christmas chords

Deck The Halls chords
Let It Snow (Ver3) chords
In The Bleak
Midwinter tabs

Have Yourself A
Merry chords

Marys Boy Child chords