Guitar tabs explorer
Print tab

Lynyrd Skynyrd - “Freebird intro “ Tabs

Lynyrd Skynyrd Freebird  intro  TabsLynyrd Skynyrd Freebird intro tabs. Related pages are Free Bird Solo Tabs, Freebird Chords, Free Bird Chords, Free Bird Intro Tabs, Freebird Bass Tabs. See all Lynyrd Skynyrd tabs. Submit corrected and missing tabs here.

Please rate and comment!


this is my 1st tab and i am 100000000000% that it is correct!!!!!!

/- slide up
- slide down


e----------------------------------------------------
b----------------------------------------------------
g--/12-11-12-11-12-12-11-9---9-11--9-9-9-------------
d--------------------------12----12------12---/10----
a----------------------------------------------------
e----------------------------------------------------


e----------------------------------------------------
b--------------------------------15-13--15----------
g-10-10-10-9--------------------------14-------------
d-----------10------9-10--12-11-12-------------------
a------------10--10---------------------------------
e----------------------------------------------------


thats it!!! this is 1 of my fav. guitar licks i play it all the time so..............enjoy!!!

Be the first to rate:

Rating: Not rated