That S The Way Mandolin Tab By Led Zeppelin

Browse chords & tabs: GuitarTabsExplorer / L / Led Zeppelin

Guitar Tabs with Lyrics


GTE======GTE=========GTE====================GTE=========================== 
That's The Way


Mandolin
     W                   W
E||-------------------|-------------------|
A||-------------------|-------------------|
D||-------------------|-------------------|
G||-------------------|-------------------|


  W                   W
-------------------|-------------------|
-------------------|-------------------|
-------------------|-------------------|
-------------------|-------------------|


  W
-------------------|
-------------------|
-------------------|
-------------------|


  S S S S E  Q    Q    E
--------------------------|
--------------------------|
--0-0-0-0-2--0---------4--|
--0---0---0--0---------0--|


  S S S S E  Q    E  S S S S
-----------------------------|
-----------------------------|
--0-4-0-4-2--0----0--2-2-2-0-|
--0---0---0--0----4--0---0---|


  S S S S E  Q    Q    E
--------------------------|
--------------------------|
--0-0-0-0-2--0---------4--|
--0---0---0--0---------0--|


  S S S S E  Q    E  S S S S
-----------------------------|
-----------------------------|
--0-4-0-4-2--0----0--2-2-2-0-|
--0---0---0--0----4--0---0---|


  W                   W
-------------------|-------------------|
-------------------|-------------------|
-------------------|-------------------|
-------------------|-------------------|


  W                   W
-------------------|-------------------|
-------------------|-------------------|
-------------------|-------------------|
-------------------|-------------------|


  W                   W
-------------------|-------------------|
-------------------|-------------------|
-------------------|-------------------|
-------------------|-------------------|


  W                   W
-------------------|-------------------|
-------------------|-------------------|
-------------------|-------------------|
-------------------|-------------------|


  T S S S S S. T Q    Q    S.
------------0----2---------2--|
----5---5---------------------|
------0---0-----------4-------|
------------------------------|


  T S S S S S. T Q    S. T S S S T
----2---2---0--------------0---0---|
-----------------5----5----------5-|
------4---4------------------2-----|
-----------------------------------|


  T H.           E.  T    W
-----------------------|-------------------|
-----------------------|-------------------|
-----------------------|-------------------|
-----------------------|-------------------|


  W                   W
-------------------|-------------------|
-------------------|-------------------|
-------------------|-------------------|
-------------------|-------------------|


  W                   W
-------------------|-------------------|
-------------------|-------------------|
-------------------|-------------------|
-------------------|-------------------|


  W                   W
-------------------|-------------------|
-------------------|-------------------|
-------------------|-------------------|
-------------------|-------------------|


  W
-------------------|
-------------------|
-------------------|
-------------------|


  T S S S S S. T Q    S. T S S S T
----2---2---0--------------0---0---|
-----------------5----5----------5-|
------4---4------------------2-----|
-----------------------------------|


  T S S S S S. T Q    Q    S.
------------0----2---------2--|
----5---5---------------------|
------0---0-----------4-------|
------------------------------|


  T S S S S S. T Q    S. T S S S T
----2---2---0--------------0---0---|
-----------------5----5----------5-|
------4---4------------------2-----|
-----------------------------------|


  T H.           E.  T    W
-----------------------|-------------------|
-----------------------|-------------------|
-----------------------|-------------------|
-----------------------|-------------------|


  W                   W
-------------------|-------------------|
-------------------|-------------------|
-------------------|-------------------|
-------------------|-------------------|


  W                   W
-------------------|-------------------|
-------------------|-------------------|
-------------------|-------------------|
-------------------|-------------------|


  W                   W
-------------------|-------------------|
-------------------|-------------------|
-------------------|-------------------|
-------------------|-------------------|


  T S S S S S. T Q    Q    S.
------------0----2---------2--|
----5---5---------------------|
------0---0-----------4-------|
------------------------------|


  T S S S S S. T Q    S. T S S S T
----2---2---0--------------0---0---|
-----------------5----5----------5-|
------4---4------------------2-----|
-----------------------------------|


  T S S S S S. T Q    Q    S.
------------0----2---------2--|
----5---5---------------------|
------0---0-----------4-------|
------------------------------|


  T S S S S S. T Q    S. T S S S T
----2---2---0--------------0---0---|
-----------------5----5----------5-|
------4---4------------------2-----|
-----------------------------------|


  T H.           E.  T    W
-----------------------|-------------------|
-----------------------|-------------------|
-----------------------|-------------------|
-----------------------|-------------------|


  W                   W
-------------------|-------------------|
-------------------|-------------------|
-------------------|-------------------|
-------------------|-------------------|


  W                   W
-------------------|-------------------|
-------------------|-------------------|
-------------------|-------------------|
-------------------|-------------------|


  W                   W
-------------------|-------------------|
-------------------|-------------------|
-------------------|-------------------|
-------------------|-------------------|


  W                   W
-------------------|-------------------|
-------------------|-------------------|
-------------------|-------------------|
-------------------|-------------------|


  W                   W
-------------------|-------------------|
-------------------|-------------------|
-------------------|-------------------|
-------------------|-------------------|


   S S  S S E   Q     Q    E
---8-5--8-5-0---2-----8----2--|
---5-5--5-5-3---5----------2--|
---9-0--9-0-5---5----------5--|
--12-0-12-0-9--11----11----7--|


   S S  S S E   Q    E  S S S S
---2-8--2-8-0---8-------0-6-0-5-|
---5-9--5-9-3---5----5--3-7-3-5-|
---5-4--5-4-5---9----9--5-2-5-0-|
--11-0-11-0-9--12-------9-0-9-0-|


  W                   W
-------------------|-------------------|
-------------------|-------------------|
-------------------|-------------------|
-------------------|-------------------|


  W                   W
-------------------|-------------------|
-------------------|-------------------|
-------------------|-------------------|
-------------------|-------------------|


  W                   W
-------------------|-------------------|
-------------------|-------------------|
-------------------|-------------------|
-------------------|-------------------|


  W                   W
-------------------|-------------------|
-------------------|-------------------|
-------------------|-------------------|
-------------------|-------------------|


  T S S S S S. T Q    Q    S.
------------0----2---------2--|
----5---5---------------------|
------0---0-----------4-------|
------------------------------|


  T S S S S S. T Q    S. T S S S T
----2---2---0--------------0---0---|
-----------------5----5----------5-|
------4---4------------------2-----|
-----------------------------------|


  T H.           E.  T    W
-----------------------|-------------------|
-----------------------|-------------------|
-----------------------|-------------------|
-----------------------|-------------------|


  W                   W
-------------------|-------------------|
-------------------|-------------------|
-------------------|-------------------|
-------------------|-------------------|


  W                   W
-------------------|-------------------|
-------------------|-------------------|
-------------------|-------------------|
-------------------|-------------------|


  W                   W
-------------------|-------------------|
-------------------|-------------------|
-------------------|-------------------|
-------------------|-------------------|


  W
-------------------|
-------------------|
-------------------|
-------------------|


  T S S S S S. T Q    S. T S S S T
----2---2---0--------------0---0---|
-----------------5----5----------5-|
------4---4------------------2-----|
-----------------------------------|


  T S S S S S. T Q    S. T S S S T
----2---2---0--------------0---0---|
-----------------5----5----------5-|
------4---4------------------2-----|
-----------------------------------|


  T H.           E.  T    W
-----------------------|-------------------|
-----------------------|-------------------|
-----------------------|-------------------|
-----------------------|-------------------|


  W                   W
-------------------|-------------------|
-------------------|-------------------|
-------------------|-------------------|
-------------------|-------------------|


  W                   W
-------------------|-------------------|
-------------------|-------------------|
-------------------|-------------------|
-------------------|-------------------|


  W                   W
-------------------|-------------------|
-------------------|-------------------|
-------------------|-------------------|
-------------------|-------------------|


  T S S S S S. T Q    Q    S.
------------0----2---------2--|
----5---5---------------------|
------0---0-----------4-------|
------------------------------|


  T S S S S S. T Q    S. T S S S T
----2---2---0--------------0---0---|
-----------------5----5----------5-|
------4---4------------------2-----|
-----------------------------------|


  T S S S S S. T Q    Q    S.
------------0----2---------2--|
----5---5---------------------|
------0---0-----------4-------|
------------------------------|


  T S S S S S. T Q    S. T S S S T
----2---2---0--------------0---0---|
-----------------5----5----------5-|
------4---4------------------2-----|
-----------------------------------|


  T H.           E.  T    W
-----------------------|-------------------|
-----------------------|-------------------|
-----------------------|-------------------|
-----------------------|-------------------|


  W                   W
-------------------|-------------------|
-------------------|-------------------|
-------------------|-------------------|
-------------------|-------------------|


  W                   W
-------------------|-------------------|
-------------------|-------------------|
-------------------|-------------------|
-------------------|-------------------|


  W                   W
-------------------|-------------------|
-------------------|-------------------|
-------------------|-------------------|
-------------------|-------------------|


  W                   W
-------------------|-------------------|
-------------------|-------------------|
-------------------|-------------------|
-------------------|-------------------|


  W                   W
-------------------|-------------------|
-------------------|-------------------|
-------------------|-------------------|
-------------------|-------------------|


  W                   W
-------------------|-------------------|
-------------------|-------------------|
-------------------|-------------------|
-------------------|-------------------|


  W                   W
-------------------|-------------------|
-------------------|-------------------|
-------------------|-------------------|
-------------------|-------------------|


  W                   W
-------------------|-------------------|
-------------------|-------------------|
-------------------|-------------------|
-------------------|-------------------|


  W                   W
-------------------|-------------------|
-------------------|-------------------|
-------------------|-------------------|
-------------------|-------------------|


  W                   W
-------------------|-------------------|
-------------------|-------------------|
-------------------|-------------------|
-------------------|-------------------|


  W                   W
-------------------|-------------------|
-------------------|-------------------|
-------------------|-------------------|
-------------------|-------------------|


  S. Q    Q    Q    E  T
----------0----1----3----|
-----5-------------------|
-------------------------|
-------------------------|


  S. Q.     S E  T T E  T E
-----2--------2------2-------|
-----------------------------|
-----------------------------|
-----------------------------|


  S. Q.     S E  T T E  T E
-----2--------2------2-------|
-----------------------------|
-----------------------------|
-----------------------------|


-------------------|-------------------|
-------------------|-------------------|
-------------------|-------------------|
-------------------|-------------------|


-------------------|-------------------|
-------------------|-------------------|
-------------------|-------------------|
-------------------|-------------------|


-------------------|-------------------|
-------------------|-------------------|
-------------------|-------------------|
-------------------|-------------------|


-------------------|-------------------|
-------------------|-------------------|
-------------------|-------------------|
-------------------|-------------------|


-------------------||
-------------------||
-------------------||
-------------------||




Duration Legend
---------------
W - whole
H - half
Q - quarter
E - 8th
S - 16th
T - 32nd
X - 64th
. - note dotted
|-n-|  - n-tuplets


Tablature Legend
----------------
L - tied note
x - dead note
g - grace note
(n) - ghost note
> - accentuded note
NH - natural harmonic
AH - artificial harmonic
TH - tapped harmonic
SH - semi harmonic
PH - pitch harmonic
h - hammer on
p - pull off
b - bend
br - bendRelease
pb - preBend
pbr - preBendRelease
brb - bendReleaseBend

/ - tremolo bar dip

 - tremolo bar dive
-/n - tremolo bar Release up
/n - tremolo bar inverted dip
/n - tremolo bar return
-
 - tremolo bar Release down
S - shift slide
s - legato slide
/ -  slide into from below or out of upwards
 -  slide into from above or out of downwards
~ - vibrato
W - wide vibrato
tr - trill
TP - tremolo picking
T - tapping
S - slap
P - pop
< - fade in
^ - brush up
v - brush down



Print tab

Also by led zeppelin

Thank You tabs
Communication
Breakdown chords

Good Times Bad Times
(Ver2) tabs

Kashmir tabs
Communication
Breakdown (Ver2) tabs

Boogie Mama From
Song Remains The
Same tabs

What Is And What
Should Never Be chords

Gallows Pole tutorial
Dazed And Confused bass tabs
I Cant Quit You Baby bass tabs


Please rate:
Star rating 1Star rating 2Star rating 3Star rating 4Star rating 5

Rating: 1 / 5 [1 vote]