Shine On Through By Andy James

Browse chords & tabs: GuitarTabsExplorer / J / Andy James

Guitar Tabs with Lyrics


Print tab
----------------------------------------------------------------------------
                Shine on through - Andy James
----------------------------------------------------------------------------
Tabbed by: Joel Keane (jk41)

Tuning:standard
played on a 7 string, here is a 6 string tab from watching the youtube clip
and listening to it. It's not complete but its a fair chunk of it, i will
continue to work it out and update it. Any help/feedback welcome
Clean guitar intro
e|----2------2-----2------2-----2------2-----2------2---|
B|---5-5---5--5---5-5---5--5---5-5---5--5---5-5---5--5--|
G|--4---4-4-4--4-4---4-4-4--4-4---4-4-4--4-4---4-4-4----|
D|-2-----2-------------------0-----0--------------------|
A|--------------2-----2-------------------0-----0-------|
E|------------------------------------------------------|

lead intro(on youtube/metal soloing techniques version)
e|------------------------------------------------------------------|
B|--------------------------------------------------12--10-9--------|
G|-x9/11~-\9-8-----------------------------------------------11-----|
D|-------------11-9--/13-13/14-14-14~-x6h7p6----7/9-------------9---|
A|-------------------------------------------9-7--------------------|
E|------------------------------------------------------------------|

e|---------------------------------------------|
B|-12/14~16--12\9--9brbr----------12-----------|
G|-----------------------11/13\9--11brbrbr-----|
D|---------------------------------------------|
A ---------------------------------------------|
E|---------------------------------------------|
Heavy riff/chorus backing
same chord progression as clean intro
e|------------------------------------------------------------------|
B|------------------------------------------------------------------|
G|------------------4-4--4--4-4-4---7-7--7--7-7-7-------------------|
D|-2-2--2--2-2-2----4-4--4--4-4-4---7-7--7--7-7-7----7-7--7--7-7-7--|
A|-2-2--2--2-2-2----2-2--2--2-2-2---5-5--5--5-5-5----7-7--7--7-7-7--|
E|-0-0--0--0-0-0----2-2--2--2-2-2---5-5--5--5-5-5----5-5--5--5-5-5--|

verse lead
im guessing the clean guitar is the same progression
e|--------------------------------------------------------------------------|
B|-------------/12-12-11-9/11-9h11p9p7----------9h10p9----------------------|
G|-/9-8--4~~-----------------------------11/13---------11-9-9h11p9-8-8br----|
D|--------------------------------------------------------------------------|
A|--------------------------------------------------------------------------|
E|--------------------------------------------------------------------------|

e|---------------------------------------------------------------------------|
B|--------------------------------9h10p9----------------9h10p9---------------|
G|----------9~~--11b-(b)-11b-(b)---------11-9-11/13-13--------11-9--11-9-----|
D|-9/11--11------------------------------------------------------------------|
A|---------------------------------------------------------------------------|
E|---------------------------------------------------------------------------|

e|--------------------------------------------------------------------------|
B|---------------12-/14-17~12/14-12~-9br~---------------------12-12~-9-9~---|
G|-9h11p9-8--8h9--------------------------9h11p9-11-9-11/13-----------------|
D|--------------------------------------------------------------------------|
A|--------------------------------------------------------------------------|
E|--------------------------------------------------------------------------|

e|--------------------------------------------------------------------------|
B|-7-7~-5-5~--12-12-12\9-9-9-9\7-7-7-7\5-5-5/7-7-7/9-x------5~~----9brbrbr--|
G|-----------------------------------------------------4/6------------------|
D|--------------------------------------------------------------------------|
A|--------------------------------------------------------------------------|
E|--------------------------------------------------------------------------|

e|--------------------------------------------------------------------------|
B|-12-/16-\12--14/19-21x17/19--16h17p16-------------------------------------|
G|--------------------------------------18-16-14-16b-16b---13br\11/13-------|
D|--------------------------------------------------------------------------|
A|--------------------------------------------------------------------------|
E|--------------------------------------------------------------------------|

e|---------------------|
B|-/9b~~~--11brbrbr----|
G|---------------------|
D|---------------------|
A|---------------------|
E|---------------------|

Chorus, played with a harmony?
e|-11h12p11----------------------11h12p11----------------------------|
B|----------12----------------------------12-------------------------|
G|-------------11-11/13--9\8-8---------------11-11/13--13-13/16-16---|
D|-------------------------------------------------------------------|
A|-------------------------------------------------------------------|
E|-------------------------------------------------------------------|


e|-16-12-----12--------14-12-----12-----------------------------------------|
B|--------------------------------------------------------------------------|
G|-------16-----16-13--------16-----16-14-16-14-13-14-13h14p13-11-x11/13-13-|
D|--------------------------------------------------------------------------|
A|--------------------------------------------------------------------------|
E|--------------------------------------------------------------------------|

e|-----------------11h12p11----------------------11h12p11--------------------|
B|--------12----------------12----------------------------12-----------------|
G|-x9b~~--11brb----------------11-11/13--9\8-8---------------11-11/13-13-----|
D|---------------------------------------------------------------------------|
A|---------------------------------------------------------------------------|
E|---------------------------------------------------------------------------|
             alternate pick up, sweep down
e|----------------------14/17------------------------------------------------|
B|----------------------------15---------------------------------------------|
G|-13/16-16----11-12-14----------14\11---------------------11brbr-/9~--------|
D|-----------12------------------------12------------------------------------|
A|----------------------------------------14-10-10h12p10---------------------|
E|-------------------------------------------------------10~~----------------|

verse 2
e|------------------------------------------------------------------|
B|-------9h10p9-----------------------------------------------------|
G|-11/13--------11-9-9h11p9-8-8br---------9--11br-9-----------------|
D|--------------------------------9/11-11-----------11-9------------|
A|-------------------------------------------------------11-9\7~~---|
E|------------------------------------------------------------------|

   up
strokes----------------------------------------------------------------|
e|-------------------------16-14~-14-12-14-14/16-16b-r-12-12/14~--11h12p11---|
B|-------------------12h14---------------------------------------------------|
G|--------------9h13---------------------------------------------------------|
D|---------9h12--------------------------------------------------------------|
A|-----7h11------------------------------------------------------------------|
E|-7h9-----------------------------------------------------------------------|

                                        this is basically a guess
                                         cos of the speed             P.H
e|------------------------------------------------9h12p9--------------------|
B|-12--12-14-16-14/16--\9br~------------------9h12------12p9----------------|
G|----------------------------11-9-11/13--9h11--------------11p9h11p9-#-----|
D|--------------------------------------------------------------------11br--|
A|--------------------------------------------------------------------------|
E|--------------------------------------------------------------------------|

e|---------------------------------------------------------------------------|
B|---------------------------12-12~-9-9~-7-7~-5-5~-12-12-12\9-9-9-9/14-14-14-|
G|---------------------------------------------------------------------------|
D|-p9h11p9-11p9h11p9---------------------------------------------------------|
A|-------------------9p7-7br-------------------------------------------------|
E|---------------------------------------------------------------------------|

e|--------------------------------------------------------------------------|
B|-14\5-5-------------------------------------------------------------------|
G|--------------------------------------------------------------------------|
D|--------------------------------------------------------------------------|
A|--------------------------------------------------------------------------|
E|--------------------------------------------------------------------------|

thats all i got for now, but its a bit to work through, with the timing of
the slides and bends and the vibrato. i will endeavour to work thru more


************************************

| /   slide up
| \   slide down
| h   hammer-on
| p   pull-off
| ~   vibrato
| +   harmonic
| x   Mute note
| b   Bend
| pb  Pre-bend
| br  Bend release
| pbr Pre-bend release

The End                                                      The End


Be the first to rate:
Star rating 1Star rating 2Star rating 3Star rating 4Star rating 5

Rating: Not rated



Also by andy james

Shine On Through tabs
Separation tabs