Separation By Andy James : Tabs : GTE

Separation By Andy James

Browse chords & tabs: GuitarTabsExplorer / J / Andy James

Guitar Tabs


GTE======GTE=========GTE====================GTE================================
-----------------------------------------------------------------------------

Separation-Andy James
-----------------------------------------------------------------------------
Submitted by: Tosk

Tuning: standard


Im only tabbing the lead part as the clean guitar is in different tuning
    verse
e|--------------------------------------------------------------------------|
B|--------------------------------------------------------------------------|
G|-----------------------------------------10-9-----7-h9p7\5----------------|
D|-------/10-7~--\5-3-5------------10----7--------7-----------------7-------|
A|-5-7-8----------------5-5------8----8--------------------------7----------|
E|--------------------------------------------------------------------------|

e|---------------------------------------------------------13-12------------|
B|------------------------------------------10-------13----------13---------|
G|---------13----15-------10-12brp10--------------10----12----------12-10---|
D|-9-10-12----14----12~--------------12--12----12---------------------------|
A|--------------------------------------------------------------------------|
E|--------------------------------------------------------------------------|
                pre chorus
e|--------------------------------------------------------------------------|
B|-13-----------10--------8~---10--------8-13-13/15\10-8---10--------8------|
G|----9b-r-----------9-10-----------9-10------------------------9-10---10-9-|
D|-----------------7--------------7---------------------------7-------------|
A|--------------------------------------------------------------------------|
E|--------------------------------------------------------------------------|

e|------------------------------------------------------13-----13-15-/17-20-|
B|---------------6-------------11--------------11---/17-----15--------------|
G|-10-7----5-7/9---9\7-5-12/14----14\12-10-/14------------------------------|
D|-------7------------------------------------------------------------------|
A|--------------------------------------------------------------------------|
E|--------------------------------------------------------------------------|

e|--15-13/17-------------------------131713--1513--13----13-----------------|
B|-----------------------------131517------17----17--1517--17131513---------|
G|-----------------------141517------------------------------------171514---|
D|-----------------141517------------------------------------------------17-|
A|-----------131517---------------------------------------------------------|
E|--------------------------------------------------------------------------|
                              Chorus(w/wah)
e|----------------------20~-------------------------------------------------|
B|----------------17-18-----------------------------------10/13~-13-11-10---|
G|------------17-------------/14--14-12-10-9-10---------10----------------12|
D|-15---14-15-----------------------------------10---/12--------------------|
A|--------------------------------------------------------------------------|
E|--------------------------------------------------------------------------|

e|--------/17--15-13-15---13-12-13--12-13-12br---------13-15----------------|
B|-10------------------------------------------15---/14-----12-10/12--------|
G|----10--------------------------------------------------------------------|
D|--------------------------------------------------------------------------|
A|--------------------------------------------------------------------------|
E|--------------------------------------------------------------------------|

e|-----------------------------------------------/17--15-13-15--13-12-13--12|
B|-----------------------10/13-13-11-10----10-------------------------------|
G|-/14-12-10-9-10------10---------------12----10----------------------------|
D|---------------12--12-----------------------------------------------------|
A|--------------------------------------------------------------------------|
E|--------------------------------------------------------------------------|

e|-13-12br---------10-------------------------------------------------------|
B|---------15--13b----13p10-11p10-------------------------------------------|
G|--------------------------------12-10p9-10p9------------------------------|
D|---------------------------------------------12-10-12~~~~-----------------|
A|--------------------------------------------------------------------------|
E|--------------------------------------------------------------------------|
Theres first half of song rest will follow shortly

************************************

| /   slide up
| \   slide down
| h   hammer-on
| p   pull-off
| ~   vibrato
| +   harmonic
| x   Mute note
| b   Bend
| pb  Pre-bend
| br  Bend release
| pbr Pre-bend release
| brb Bend release bend