Sugar Daddy By Hedwig And The Angry Inch

Browse chords & tabs: GuitarTabsExplorer / H / Hedwig And The Angry Inch

Guitar Tabs with Lyrics


Print tab
well, im not sure if this is right but it sounds ok. hopefully i 
havent made too many mistakes but if i have feel free to take a 
stab at my e-mail address and send me abuse or corrections, thanks.

E-----2---------------
B--------4--3--4------
G---------------------
D-----------------4---
A--2------------------
E---------------------  this riff is repeated a few times at the start 
and keeps getting played back all through the song.

E--------2---
B--------4---
G--1-----2---
D--2-----4---
A--2-----2---
E--------2---    x2
  i've got a sweet tooth...

E--2---------2---
B--2---------4---
G--3----1----2---
D--4----2----4---
A--4----2----2---
E--2---------2---
  i'll lay out the fine china...

E--2---4-------2---2---
B--4---4-------2---4---
G--2---5---1---3---2---
D--4---6---2---4---4---
A--2---6---2---4---2---
E--2---4-------2---2---
  and if you've got some sugar...

E------2---
B------4---
G--1---2---
D--2---4---
A--2---2---
E------2---   x2
  oh the thrill of control...

E--4---4---
B--4---6---
G--5---4---
D--6---6---
A--6---4---
E--4---4---
  it's the sweetest taste i know

E------2---2---
B------2---4---
G--1---3---2---
D--2---4---4---
A--2---4---2---
E------2---2---
  if you've got some sugar...

well, there you go, tried to make them easy to read, hopefully you can
understand them! if there are any mistakes im really sorry but give me a
break, im a complete idiot that can't even count to 10 without using my
fingers. enjoy :)


Please rate:
Star rating 1Star rating 2Star rating 3Star rating 4Star rating 5

Rating: 5 / 5 [1 vote]

hedwig and the angry inch sugar daddy g!

Also by hedwig and the angry inch

Long Grift chords
Wicked Little Town chords
Wicked Little Town tabs
Sugar Daddy tabs
Wig In A Box chords
Origin Of Love tabs
Midnight Radio chords