And We Bid You Good Night By Grateful Dead

Browse chords & tabs: GuitarTabsExplorer / G / Grateful Dead

Guitar Tabs


Print tab
And We Bid You End
(^) Slide Up  () Slide Down  (h) Hammer On  (p) Pull Off  (b) Bend

MP3 Tab Support Audio (51K)

MIDI Tab Support Audio (andwebid.mid)

         E
E-----------------------------------------------------------
B---7^9--7-----9--7-----9-------7--9-9-9-7------------------
G-----------9--------9------9-9------------9----------------
D-----------------------------------------------------------
A-----------------------------------------------------------
E-----------------------------------------------------------
        E                            B
E-----------------------------------------------------------
B-------7--9--9--9--7-----9--9p7-----7----------------------
G---9-9----------------9----------9-------------------------
D-----------------------------------------------------------
A-----------------------------------------------------------
E-----------------------------------------------------------

   E    A                    E                A     B     E
E-------7---------------------------------------------------
B--7^9-----10----10-9--7------------7--9--7-----------7-----
G-------------------------9--9----9---------9-9---9-8---8-9-
D-----------------------------------------------------------
A-----------------------------------------------------------
E-----------------------------------------------------------


Please rate:
Star rating 1Star rating 2Star rating 3Star rating 4Star rating 5

Rating: 1.5 / 5 [2 votes]

grateful dead and we bid you good night g!

Also by grateful dead

Good Morning Little
School Girl chords

Standing On The Moon chords
Cream Puff War tabs
Attics Of My Life tabs
Morning Dew (Ver2) chords
Black Muddy River chords
Black Throated Wind chords
Candy Man tabs
Operator chords
Bertha chords