Guitar tabs explorer
Print tab

Funkadelic - “Standing on the verge of getting it on“ Guitar tab

Funkadelic Standing on the verge of getting it on guitar tab. Related pages are I Bet You Tabs, Hit It And Quit It Bass Tabs, Red Hot Mama Tabs, Miss Lucifers Love Tabs, Who Says A Funk Band Cant Play Rock Tabs. See all Funkadelic tabs. Submit corrected and missing guitar tab here.

Please rate and comment!


]=-------= STANDING ON THE VERGE OF GETTING IT ON : FUNKADELIC =--------=[

Artist	Funkadelic
Album	Standing on the Verge of Getting it on
Song	Standing on the Verge of Getting it on

Tabbed by Turbo_King
Comments to gj_williams2000@yahoo.co.uk

Intro

e |---------------------------------|----------|----------|--------------|
B |---------------------------------|----------|----------|--------------|
G |-(3)-5--3------------------------|--5-------|--3-------|--4-----------|
D |-----------5--4--3---------------|--5-------|--3-------|--4-----------|
A |--------------------6-----6---3--|--3-------|--1-------|--2-----------|
E |---------------------------------|----------|----------|--------------|


Chorus - Lead

e |--11--8--6--------------------|-----------------------------------|
B |------------8--6-----6--------|-----------------------------------|
G |------------------------8-----|--5--3-----------------------------|
D |------------------------------|-----------1--1-----3--3-----5--5--|
A |------------------------------|-----------------------------------|
E |------------------------------|-----------------------------------|

e |--------------|
B |--------------|
G |-----3--5-----|
D |--5-----------|
A |--------------|
E |--------------|

Chorus - Rhythm
		     x4
e |-------------------|--------------------------------------------------|
B |-------------------|--------------------------------------------------|
G |--5------x--5--5---|--------------------------------------------------|
D |--5------x--5--5---|--------------------------------------------------|
A |--3------x--3--3---|--------------------------------------------------|
E |-------------------|--------------------------------------------------|

The part after "what time it is.." where the guitar plays by itself is in
a slightly different key. All the chorus stuff is moved up one fret at
this point.


Verse - Rhythm

e |--8---8-------8-----10--|--8---8--------8------8--|-------------------|
B |--8---8-------8-----10--|--8---8--------8------8--|-------------------|
G |--8---8-------8-----10--|--8---8--------8------8--|-------------------|
D |------------------------|-------------------------|-------------------|
A |------------------------|-------------------------|-------------------|
E |------------------------|-------------------------|-------------------|

Courtesy of the W-E-F-U-N-K or deeper still the Mothership Connection!

Be the first to rate:

Rating: Not rated