Guitar tabs explorer
Print tab

Bush - “Glycerine“ Guitar tab

Bush Glycerine guitar tab. Related pages are Glycerine (Ver2) Chords, Glycerine Bass Tabs, Glycerine Chords, The Chemicals Between Us Tabs, Inflatable Chords. See all Bush tabs. Submit corrected and missing guitar tab here.

Please rate and comment!


GLYCERINE
                              Bush
                  Transcribed by Federico Esparza

Tablature Explanation
- ---------------------
w      whole note
h      half note                      If your going to play
q      quarter note                   the Cello part on
e      eighth note                    your guitar, tune
s      sixteenth note                 down the low E string
t      thirthy-second note            to C#. I have tabbed
H      dotted half note (hx1.5)       the string instruments.
Q      dotted quarter note (qx1.5)    If you play the violin,
E      dotted eighth note (ex1.5)     cello or viola and want
                                      me too tab it in 4 string     
                                      tab, E-mail me at 
                                      CoolmanIce@AOL.com.  I 
                                      hope you enjoy it. It is very
                                      accurate. If you have any 
                                      request E-mail me.

Intro
    e  e  e  e  e   e   e   e   e   e   e   e   e   e   e   e

E---1--1--1--1--13--13--13--13--13--13--13--13--13--13--13--13--
B---------------------------------------------------------------

    e   e   e   e   e   e   e   e
E---13--13--13--13--13--13--13--13--| 
B-----------------------------------|

Rhy. Fig 1
    E   e  q    s e  e  E   e  q  s e  e  E   e  q    s e  e  E  

E-----------------------------------------------------------------
B-----------------------------------------------------------------
G-----------------------5------5----5--5--7------7------7--7--3---
D---3------3------3--3--5------5----5--5--7------7------7--7--3---
A---3------3------3--3--3---3--3--3----3--5---5--5----5----5--1---
E---1---1--1----1----1--------------------------------------------
                                                                 

    e  q    s e  e
E-------------------|
B-------------------|
G------3------3--3--|
D------3------3--3--|
A---1--1----1----1--|
E-------------------|


Rhy. Fig. 1C
    w                w                w                w        =

E----------------------------------------------------------------
B----------------------------------------------------------------
G----------------------------------------------------------------
D---Cello--------------------------------------------------------
A--------------------3----------------5----------------1---------
C#--4------------------------------------------------------------

E----------|
B----------|
G----------|
D----------|
A----------|
E----------|

Rhy. Fig. 1d
    w                w                w                w
G----------------------------------------------------------------
D---Bass---------------------------------------------------------
A--------------------3----------------5----------------1---------
E---1------------------------------------------------------------

G----------|
D----------|
A----------|
E----------|


Rhy. Fig. 1v
                    h        s E   w                q    H

E----------------------------------------------------------------
B----------------------------------------------------------------
G-------------------5-------(5)6---7----------------3----5-------
D----------------------------------------------------------------
A------------------violin----------------------------------------
E----------------------------------------------------------------

E--------|
B--------|
G--------|
D--------|
A--------|
E--------|

Rhy. Fig. 2
    Q      Q    q      tts e  s ttQ     

E----------------------------------------|
B----------------------------------------|
G----------------------555-5--3-333------|
D---3------3------3----555-5--3-333------|
A---3------3------3----333-3--1-111------|
E---1------1------1----------------------|

Rhy. Fig. 2c
    w                q    h

E----------------------------------|
B----------------------------------|
G--------cello---------------------|
D----------------------------------|
A--------------------3----1--------|
C#--4------------------------------|

Rhy. Fig. 2d
    w                q    h
G----------------------------------|
D---Bass---------------------------|
A--------------------3----1--------|
E---1------------------------------|

Rhy. Fig. 2v
    w                q    h
E----------------------------------|
B---violin & viola-----------------|
G--------------------5----3--------|
D---3------------------------------|
A----------------------------------|
E----------------------------------|

Rhy. Fig, 1b
    Q      Q      q    Q      Q      q    Q      Q      q    Q

E-----------------------------------------------------------------
B-----------------------------------------------------------------
G----------------------5------5------5----7------7------7----3----
D---3------3------3----5------5------5----7------7------7----3----
A---3------3------3----3------3------3----5------5------5----1----
E---1------1------1-----------------------------------------------


      Q      q
E-----------------|
B-----------------|
G-----3------3----|
D-----3------3----|
A-----1------1----|
E-----------------|

Rhy. Fig. 3
    h        h        h        h        h        h
G---------------------------------------5--------7--------|
D---6--------8--------6--------8--------------------------|
A---------------------------------------------------------|
E---Bass--------------------------------------------------|

Fill 1                   Fill 2
             s s s                    s s s
E-------------------|    E----------------3--|
B----------------3--|    B-------------------|
G--------------3----|    G--------------3----|
D------------3------|    D------------3------|
A-------------------|    A-------------------|
E-------------------|    E-------------------|

Fill 3
    e   e   e   e   e   e   e   e   e   e   e   e   e   e   e   e
E---11--11--11--11--11--11--11--11--11--11--11--11--11--11--11--11
B-----------------------------------------------------------------
      e   e   e   e   e   e   e   e   e   e   e   e   e   e   e
E-----11--11--11--11--11--11--11--11--11--11--11--11--11--11--11--
B-----------------------------------------------------------------
    e
E---11--|
B-------|

Fill 4
            s  s  s  s
E-----------11-12-11-12-|
B-----------------------|


Intro

Rhy. Fig. 1 & 1d (1x)


Rhy. Fig. 1, 1b & 1d(1x) with Fill 1 at last measure (A# Chord)

Rhy. Fig. 1 & 1d (4x)

F                   C
   must be your skin...
D A# w/Fill 2
F C
D A#


w/Rhy. Fig. 1b (2x)

F                   C
   everything's gone white...
D A#
w/Fill 3
F C
D A#

Rhy. Fig. 1, 1b, 1c, 1d & 1v (1x)

F                   C
                        don't let the...
D A#

Rhy. Fig. 2 & 2d (2x)

F                   C         A#
                                 Glycerine...
F C A#

Rhy. Fig. 1 & 1d(4x)

F                   C
   i'm never alone...
D w/Fill 1 A#
F C
D A#

Rhy. Fig. 1, 1c & 1d

F                   C
   if i treated you...
D A#

Rhy. Fig. 1, 1b, 1c, 1d & 1v (3x)

F                   C
                             don't let the...
D A#
F C
D A#
F C
D A#

Rhy. Fig. 2, 2c, 2d & 2v (2x)

F       w/Fill 4    C         A#
                                 Glycerine...
F w/Fill 4 C A#

Rhy. Fig. 1, 1b, 1c, 1d & 1v (3x)

F                   C
                            don't let the...
D A#
F C
D A#
F C

- -----------------------------------------
Rhy. Fig 1b Heavy distortion at 3rd measure (D Chord)
D                   A#
- -----------------------------------------

Rhy. Fig. 1, 1b w/Hd, 1c, 1d & 1v (2x)

F                   C

D                   A#
Glycerine...
F C
D A#

Solo w/Rhy. Fig. 3
    s s h        s s s s s s s s q    h        s s s s s s s s h
E---violin-------------------------------------------------------|
B---6-5-3--------------------5-6-5-------------1-3---------------|
G----------------------------------------------------------------|
D----------------3-5-3-2-3-2-0-2-0-------------------------------|
A-------------------Cello-------------0--------------------------|
C#---------------------------------------------3-5-3-2-3-2-0-2-0-|
|      bad moon white...                                         |
|                                                                |

|   s s s s s s s s s s s s s s s s s s s s s s s s s s s s s s s|
E----------------------------------------------------------------|
B----------------------------------------------------------------|
G----------------------------------------------------------------|
D---5-6-5-6-5-6-5-6-7-8-7-8-7-8-7-8-5-6-5-6-5-6-5-6-7-8-7-8-7-8-7|
A------------------viola-----------------------------------------|
E----------------------------------------------------------------|


           s s h        s s h        s s h        s s H
E-----------------------5-3-1------------------------------------|
B----------6-5-3---------------------6-5-3--------5-6-5----------|
G----------------------------------------------------------------|
D----------------------------------------------------------------|
A----------------------------------------------------------------|
C#---------------------------------------------------------------|
|    as she falls...
|                                    w/Rhy. Fig. 1& 1d (2x)      |
|   s s s s s s s                                                |
E----------------------------------------------------------------|
B----------------------------------------------------------------|
G-----4-5-4-5-4-5-4-5-6-7-6-7-6-7-6-7----------------------------|
D---8------------------------------------------------------------|
A----------------------------------------------------------------|
E----------------------------------------------------------------|


    s H            s s h        e  s q

E-------------------------------5--3-1----|
B---1-3------------6-5-3------------------|
G-----------------------------------------|
D-----------------------------------------|
A-----------------------------------------|
E-----------------------------------------|

F                   C
   i needed you more...
D A#

                   Begin Rhy. Fig. 1v at second measure (1x)

F                   C
   it might just be...
D A#

Rhy. Fig.1, 1d, & 1c

F                   C
                            don't let the...
D A#

Rhy. Fig. 1, 1c, 1d & 1v

F                   C

   could have been...
D A#

Rhy. Fig. 2, 2c, 2d & 2v (3x)

F                   C         A#
                                 Glycerine...
F w/Fill 4 C A#
F C A#
F C A# C F

Outro
    h        H            h        H            h        H

E----------------------------------------------------------------
B---Cello & Viola & Violin---------------------------------------
G----------------------------------------------------------------
D---8--------5------------6--------3------------4--------1-------
A----------------------------------------------------------------
E----------------------------------------------------------------


          h        H            h    (H) H
E------------------------------------(15)-------------|
B-----------------------------------------------------|
G-----------------------------------------------------|
D---------6--------3------------4--------1------------|
A-----------------------------------------------------|
E-----------------------------------------------------|

Be the first to rate:

Rating: Not rated

Check it out...
Join our new guitar forum & community. Click here!
[Guitar forum|Member images|Member videos]