Guitar tabs explorer
Print tab

Jimmy Buffett - “Changes in latitude“ Bass tab

Jimmy Buffett Changes in latitude bass tab. Related pages are Anything Anytime Anywhere Chords, Simply Complicated Chords, Someone I Used To Love Chords, Coast Of Marseilles Tabs, Pina Coladas Tabs. See all Jimmy Buffett tabs. Submit corrected and missing bass tab here.

Please rate and comment!


Changes In Latitude.btab
Jimmy Buffet
TablEdited by Poppamies
Tuning : E A D G 	Time Signature: 4/4

                                        2/4 bar
 |       |       |       |        |       |        
|--------------------------------|----------------|
|---8 bars intro without bass----|----------------|
|--------------------------------|----------------|
|--------------------------------|----------------|

 |       |       |       |        |       |       |       |        
|----------------2-----------2---|----------------2-----------2---|
|0-----------0-------------------|0-----------0-------------------|
|--------------------------------|--------------------------------|
|--------------------------------|--------------------------------|

 |       |       |       |        |       |       |       |        
|--------------------------------|0-----------0---0---------------|
|0-----------0---0---------------|----------------------------0---|
|--------------------------------|--------------------------------|
|--------------------------------|--------------------------------|

 |       |       |       |        |       |       |       |        
|--------------------------------|----------------2-----------2---|
|--------------------------------|0-----------0-------------------|
|0-----------0---0-----------0---|--------------------------------|
|--------------------------------|--------------------------------|

 |       |       |       |        |       |       |       |        
|----------------------------0---|0-----------0---0---------------|
|0-----------0---0-------0-------|----------------------------0---|
|--------------------------------|--------------------------------|
|--------------------------------|--------------------------------|

 |       |       |       |        |       |       |       |        
|--------------------------------|--------------------------------|
|--------------------------------|0---------------0---------------|
|0-----------0---0-----------0---|------------0-----------4-------|
|--------------------------------|--------------------------------|

 |       |       |       |        |       |       |       |        
|--------------------------------|--------------------------------|
|--------------------------------|4-----------4---------------4---|
|2-----------2---------------4---|----------------4-------4-------|
|----------------2---------------|--------------------------------|

 |       |       |       |        |       |       |       |        
|0-----------0-------------------|----------------2-------2---2---|
|----------------0-----------0---|------------2-------------------|
|--------------------------------|0-------------------------------|
|--------------------------------|--------------------------------|

 |       |       |       |        |       |       |       |        
|0-----------0---0-----------0---|----------------2-----------2---|
|--------------------------------|0-----------0-------------------|
|--------------------------------|--------------------------------|
|--------------------------------|--------------------------------|

 |       |       |       |        |       |       |       |        
|--------------------------------|--------------------------------|
|--------------------------------|0-----------0---2-------4-------|
|0-----------0---2-------4---4---|--------------------------------|
|--------------------------------|--------------------------------|

 |       |       |       |        |       |       |       |        
|0-----------0---7-----------2---|----------------2-------2-------|
|--------------------------------|0-----------0---------------2---|
|--------------------------------|--------------------------------|
|--------------------------------|--------------------------------|

 |       |       |       |        |       |       |       |        
|--------------------------------|--------------------------------|
|--------------------------------|0-----------0---0-------2---4---|
|0-----------0---0-------0---4---|--------------------------------|
|--------------------------------|--------------------------------|

 |       |       |       |        |       |       |       |        
|0-----------0---7---------------|----------------2-------2-------|
|----------------------------7---|0-----------0---------------2---|
|------------------------5-------|--------------------------------|
|--------------------------------|--------------------------------|

 |       |       |       |        |       |        
|--------------------------------|0---------------|
|----------------2-------2-------|----4---2-------|
|0-----------0-------------------|----------------|
|--------------------------------|----------------|

 |       |       |       |        |       |       |       |        
|----------------2-----------2---|--------------------------------|
|0-----------0-------------------|--------and so on.......--------|
|--------------------------------|--------------------------------|
|--------------------------------|--------------------------------|


m/
http://www.geocities.com/jani_bjorklund/janis.html



Jan Bjorklund, Finland

Please rate:

Rating: 2 / 5 [1 vote]