You Can T Do That By The Beatles : Bass Tabs : GTE

You Can T Do That By The Beatles

Browse chords & tabs: GuitarTabsExplorer / B / The Beatles

Bass Guitar Tabs and lyrics


GTE======GTE=========GTE====================GTE=========================== 
You Canít Do That
G------------|-------------|------------------------------------------------------
D------------|-------------|------------------------------------------------------
A------------|-------------|-----------235---------------------------------------
E----------2-|3--3--3--3-|--3--3--3------3------------------------------------
                 G7
|||||||||||||||||||||||||||||||||||||||||||||||||||||||||||||||||||||||||||||||||||||||||||||||||||||||||||||||||||||||||||||||||||||||||||||||||||
G-------------------------------------------------------------|-----------------------|------------------------------------------------------------
D-------------------------------------------------------------|-----------------------|------------------------------------------------------------
A-------------------------------------------------------------|---------------235----|---------------------------------------------------------235-
E------------------3-------3----------3-----------3----3-2-|-3------3----3------3-|-------3----------3---------3----2------3------------3--------3-
                       G7
1.         I    got something to say that might  cause you pain; if   I   
catch    you     talk-ing   to   that   boy  again,
2.Well itís the second time Iíve caught you  talk-iní to him; do I have to
tell you one more time I think itís a sin
3.         So    please listen to me if  you wan- na  stay  mine.      I canít
help my feelings I go out of my mind.
4. guitar solo                                                                
                    You canít do thatÖ.                         You canít do
thatÖ.
5.         So    please listen to me if  you wan- na  stay  mine.      I canít
help my feelings I go out of my mind.
||||||||||||||||||||||||||||||||||||||||||||||||||||||||||||||||||||||||||||||||||||||||||||||||||||||||||||||||||||||||||||||||||||||||||||||
G------------------------------------------|--------------------------------------------------------------------------------------------------
D------------------------------------------|--------------------------------------------------------------------------------------------------
A-----------------3-------3-----3------3-|-3ó3-3-345--------------------------5-----5-----5---5óró3ó1---3-1-------1--------------5-5-5-5///
E------------------------------------------|----------------3--3-3-32-3-3-3--------------------------------------------------3----3-3-3-3-3---
                     C7                                         G7            
           D7                      C7                     G7   D7
1. Iím gonna let you down, and leave you flat. Because Iíve told you before,
Oh you canít do that. (to #2)
2. I think Iíll let you down, and leave you flat. Because Iíve told you
before, Oh you canít do that. (to chorus)
3. Iím gonna let you down, and leave you flat. Because Iíve told you before,
Oh you canít do that. (to #4, solo)
4.                                  You canít do thatÖ.   You canít do thatÖ. 
                               (to chorus, then #5)
5. Iím gonna let you down, and leave you flat. Because Iíve told you before,
Oh you canít do that. (to ending)
||||||||||||||||||||||||||||||||||||||||||||||||||||||||||||||||||||||||||||||||||||||||||||||||||||||||||||||||||||||||||||||||||||||||||||||
CHORUS:
G---------------------------------------------------------------------------------------------------------------------------------------------
D---------------------------------------------------------------------------------------------------------------------------------------------
A-------------------------------------7-7------------------------------------------------------------------------------------------------7-7-
E--3-3------3-------3-5-7-7-7-7--------7-7-7-3-3-----5-------5---------------7-----7-------3-3---3-3-5-------------7-7-7-7--------7
      G7                   B7          Em                 Am                  
   Bm          G7                         B7       Em
       Everybodyís   green,                 Ďcause Iím the one who won your
love. But if theyíd seen
|||||||||||||||||||||||||||||||||||||||||||||||||||||||||||||||||||||||||||||
G----------------------------------------------------------------------------
D----------------------------------------------------------------------------
A--------------------------------------------------------------5-5---5-------
E-7-7-3-7------5----5----5-----5----------------7-------7--------------------
                   Am                                  Bm              D
            You talk-iní that way, theyíd laugh in my face. (to #3)
||||||||||||||||||||||||||||||||||||||||||||||||||||||||||||||||||||||||||||||||||||||
ENDING:
G-------------------------------------------------------------------------------------
D-------------------------------------------------------------------------------------
A------------------5----5----5---5------3-----1----3--1-------1-----------------------
E--------------------------------------------------------------3----3-3-3-3-----------
                     D7                      C7                       G7     
D7    C7    G7
Because Iíve told you before; Oh, you canít do that.                          
   End; F    F#   G