Across The Universe Intro By The Beatles : Tabs : GTE

Across The Universe Intro By The Beatles

Browse chords & tabs: GuitarTabsExplorer / B / The Beatles

Guitar Tabs


GTE======GTE=========GTE====================GTE=========================== 
Artist: Beatles
Song : Across The Universe (Let It Be 1970)
Tuning: Standard
Transcriber: Phil Champ

Intro as strummed by John in the "Let It Be" video.


E||--2/--------10--------|--9----7----5----7----|--2----2----2----2----|
B||--3---------10--------|--9----7----5----5----|--2----2----2----2----|
G||--2/--------11--------|--9----7----6----6----|--2----4----2----4----|
D||-------0--------------|----------------------|--4----4----4----4----|
A||----------------------|----------------------|----------------------|
E||----------------------|----------------------|----------------------|


                                                                   
--2----2----2----2----|--0----0----0----0----|--0----0----0----0----|
--2----2----2----2----|--0----0----0----0----|--0----0----0----0----|
--2----4----2----4----|--0----2----0----2----|--0----2----0----2----|
--4----4----4----4----|--2----2----2----2----|--2----2----2----2----|
----------------------|--2----2----2----2----|--2----2----2----2----|
----------------------|--0----0----0----0----|--0----0----0----0----|


                                             
--0----0----0----0----|--0----0----0----0----||
--2----2----2----2----|--3----2----0----2----||
--0----2----0----2----|--2----2----2----2----||
--2----2----2----2----|--2----2----2----2----||
--0----0----0----0----|--0----0----0----0----||
--0----0----0----0----|--0----0----0----0----||


---