Guitar tabs explorer

You Can T Do That by The Beatles

Browse chords & tabs: B / The Beatles

Bass Guitar Tab with Lyrics


Print tab

You Cant Do That
G------------|-------------|------------------------------------------------------
D------------|-------------|------------------------------------------------------
A------------|-------------|-----------235---------------------------------------
E----------2-|3--3--3--3-|--3--3--3------3------------------------------------
                 G7
|||||||||||||||||||||||||||||||||||||||||||||||||||||||||||||||||||||||||||||||||||||||||||||||||||||||||||||||||||||||||||||||||||||||||||||||||||
G-------------------------------------------------------------|-----------------------|------------------------------------------------------------
D-------------------------------------------------------------|-----------------------|------------------------------------------------------------
A-------------------------------------------------------------|---------------235----|---------------------------------------------------------235-
E------------------3-------3----------3-----------3----3-2-|-3------3----3------3-|-------3----------3---------3----2------3------------3--------3-
                       G7
1.         I    got something to say that might  cause you pain; if   I    catch    you     talk-ing   to   that   boy  again,
2.Well its the second time Ive caught you  talk-in to him; do I have to tell you one more time I think its a sin
3.         So    please listen to me if  you wan- na  stay  mine.      I cant help my feelings I go out of my mind.
4. guitar solo                                                                                     You cant do that.                         You cant do that.
5.         So    please listen to me if  you wan- na  stay  mine.      I cant help my feelings I go out of my mind.
||||||||||||||||||||||||||||||||||||||||||||||||||||||||||||||||||||||||||||||||||||||||||||||||||||||||||||||||||||||||||||||||||||||||||||||
G------------------------------------------|--------------------------------------------------------------------------------------------------
D------------------------------------------|--------------------------------------------------------------------------------------------------
A-----------------3-------3-----3------3-|-33-3-345--------------------------5-----5-----5---5r31---3-1-------1--------------5-5-5-5///
E------------------------------------------|----------------3--3-3-32-3-3-3--------------------------------------------------3----3-3-3-3-3---
                     C7                                         G7                        D7                      C7                     G7   D7
1. Im gonna let you down, and leave you flat. Because Ive told you before, Oh you cant do that. (to #2)
2. I think Ill let you down, and leave you flat. Because Ive told you before, Oh you cant do that. (to chorus)
3. Im gonna let you down, and leave you flat. Because Ive told you before, Oh you cant do that. (to #4, solo)
4.                                  You cant do that.   You cant do that.                                 (to chorus, then #5)
5. Im gonna let you down, and leave you flat. Because Ive told you before, Oh you cant do that. (to ending)
||||||||||||||||||||||||||||||||||||||||||||||||||||||||||||||||||||||||||||||||||||||||||||||||||||||||||||||||||||||||||||||||||||||||||||||
CHORUS:
G---------------------------------------------------------------------------------------------------------------------------------------------
D---------------------------------------------------------------------------------------------------------------------------------------------
A-------------------------------------7-7------------------------------------------------------------------------------------------------7-7-
E--3-3------3-------3-5-7-7-7-7--------7-7-7-3-3-----5-------5---------------7-----7-------3-3---3-3-5-------------7-7-7-7--------7
      G7                   B7          Em                 Am                      Bm          G7                         B7       Em
       Everybodys   green,                 cause Im the one who won your love. But if theyd seen
|||||||||||||||||||||||||||||||||||||||||||||||||||||||||||||||||||||||||||||
G----------------------------------------------------------------------------
D----------------------------------------------------------------------------
A--------------------------------------------------------------5-5---5-------
E-7-7-3-7------5----5----5-----5----------------7-------7--------------------
                   Am                                  Bm              D
            You talk-in that way, theyd laugh in my face. (to #3)
||||||||||||||||||||||||||||||||||||||||||||||||||||||||||||||||||||||||||||||||||||||
ENDING:
G-------------------------------------------------------------------------------------
D-------------------------------------------------------------------------------------
A------------------5----5----5---5------3-----1----3--1-------1-----------------------
E--------------------------------------------------------------3----3-3-3-3-----------
                     D7                      C7                       G7      D7    C7    G7
Because Ive told you before; Oh, you cant do that.                              End; F    F#   G

The End                                                  The End

Please rate:
Star rating 1Star rating 2Star rating 3Star rating 4Star rating 5

Rating: 5 / 5 [1 vote]