Guitar tabs explorer

Across The Universe Intro by The Beatles

Browse chords & tabs: B / The Beatles

Guitar Tab


Print tab

Artist: Beatles
Song : Across The Universe (Let It Be 1970)
Tuning: Standard
Transcriber: Phil Champ

Intro as strummed by John in the "Let It Be" video.


E|| chord diagramE||E||--2/--------10--------|--9----7----5----7----|--2----2----2----2----|
B|| chord diagramB||B||--3---------10--------|--9----7----5----5----|--2----2----2----2----|
G|| chord diagramG||G||--2/--------11--------|--9----7----6----6----|--2----4----2----4----|
D|| chord diagramD||D||-------0--------------|----------------------|--4----4----4----4----|
A|| chord diagramA||A||----------------------|----------------------|----------------------|
E|| chord diagramE||E||----------------------|----------------------|----------------------|



--2----2----2----2----|--0----0----0----0----|--0----0----0----0----|
--2----2----2----2----|--0----0----0----0----|--0----0----0----0----|
--2----4----2----4----|--0----2----0----2----|--0----2----0----2----|
--4----4----4----4----|--2----2----2----2----|--2----2----2----2----|
----------------------|--2----2----2----2----|--2----2----2----2----|
----------------------|--0----0----0----0----|--0----0----0----0----|



--0----0----0----0----|--0----0----0----0----||
--2----2----2----2----|--3----2----0----2----||
--0----2----0----2----|--2----2----2----2----||
--2----2----2----2----|--2----2----2----2----||
--0----0----0----0----|--0----0----0----0----||
--0----0----0----0----|--0----0----0----0----||


---

The End                                                  The End

Be the first to rate:
Star rating 1Star rating 2Star rating 3Star rating 4Star rating 5

Rating: Not rated