Buried Alive (Ver2) By Avenged Sevenfold

Browse chords & tabs: GuitarTabsExplorer / A / Avenged Sevenfold

Guitar Tabs

GTE======GTE=========GTE====================GTE================================
Intro:

E|-------8----10p8----8----------7---5---------------------|
B|---/10---10------10---10-----8---8-----8/10--------------|
G|---------------------------------------------------------|
D|---------------------------------------------------------|
A|----0------------------------7---------------------------|
E|---------------------------------------------------------|

E|---------------------------------------------------------|
B|-----5---6p5---5-------5---------------------------------|
G|---7---7-----7-------5---4-7\-4h5p4----------------------|
D|------------------------------------5--------------------|
A|---5-------------3-2-0-----------------------------------|
E|---------------------------------------------------------|

E|-------8----10p8----8----------7---5---------------------|
B|---/10---10------10---10-----8---8-----8/10--------------|
G|---------------------------------------------------------|
D|---------------------------------------------------------|
A|----0------------------------7---------------------------|
E|---------------------------------------------------------|

E|---------------------------------------------------------|
B|-----5---6p5--------8-10---9h10p9p7h9-10-----------------|
G|---7---7-----7-9-10--------------------------------------|
D|---------------------------------------------------------|
A|---5---------5-7-8---------7-----------------------------|
E|---------------------------------------------------------|

E|---------------------------------------------------------|
B|---8/10---8h10-----------------8/10---8h10---------------|
G|-----------------7p5-7p5---------------------5/7-5/7-5---|
D|-------------------------7-5-----------------------------|
A|---------------------------------------------------------|
E|---------------------------------------------------------|

E|---------------------------------------------------------|
B|---8/10---8h10-----------------7h8-7---5-----5-----------|
G|-----------------7p5-7p5-----------------5-----5---------|
D|-------------------------7-5---------------5-----5-------|
A|---------------------------------------------------------|
E|---------------------------------------------------------|

E|---------------------------------------------------------|
B|---8/10---8h10-----------------8/10---8h10---------------|
G|-----------------7p5-7p5---------------------5/7-5/7-5---|
D|-------------------------7-5-----------------------------|
A|---------------------------------------------------------|
E|---------------------------------------------------------|

E|---------------------------------------------------------|
B|---8/10---8h10-----------------7h8-7---5-----5-----------|
G|-----------------7p5-7p5-----------------5-----5---------|
D|-------------------------7-5---------------5-----5-------|
A|---------------------------------------------------------|
E|---------------------------------------------------------|

E|-----------------------12----------------------h12-------|
B|---------------------------------------------------h10---|
G|-----------9-9-------------------------9-9---------------|
D|---/5--4-------7--9/10--------4/5--4-------7--7----------|
A|---------------------------------------------------------|
E|---------------------------------------------------------|

Parte Final - 00:51

E|-------------------------------------|
B|---10-10-10-12-8/5-5-5-6-5-3-1/5~~---|
G|-------------------------------------|
D|-------------------------------------|
A|-------------------------------------|
D|-------------------------------------|

E|----------------------------------------------|
B|---10-10-10-12-8/5-5-5--6-6-8-10--9-9-10-12---|
G|----------------------------------------------|
D|----------------------------------------------|
A|----------------------------------------------|
D|----------------------------------------------|

E|---------12-10--12-----12-10--12-13--12-10-----\12/7---|
B|---10-10-----------13----------------------13----------|
G|-------------------------------------------------------|
D|-------------------------------------------------------|
A|-------------------------------------------------------|
D|-------------------------------------------------------|

E|---------12-10--12--------12-10--12-13-15---------------12-10-----------------|
B|---10-10-----------13--10-------------------15b(17)r15-------13-12-10-9-10~~--|
G|------------------------------------------x-----------------------------------|
D|-----------------------------------------x------------------------------------|
A|------------------------------------------------------------------------------|
D|------------------------------------------------------------------------------|



Am                    C
Take the time just to listen
         F                    E
When the voices screaming are much too loud
Am                 C
Take a look in the distance
        F      E
Try and see it all

Am                   C
Chances are that you might find
        F                 E
That we share a common discomfort now
Am                   C
I feel I'm walking a fine line
        F            E
Tell me only if it's real

Dm        C     G
Still I'm on my way
G
(On and on it goes)
Dm     C       G E
Vacant hope to take

Am
Hey!
  E     F                E        F G
I can't live in here for another day
Am       E   F                 E
Darkness has kept the light concealed
F    E  G F
Grim as ever
Am      E  F              E          F G
Hold on to faith as I dig another grave
Am        E   F               E
Meanwhile the mice endure the wheel
E
Real as ever
E                             Am
And it seems I've been buried alive!

( C F E )

  Am                          C
I walk the fields through the fire

       F                   E            Am
Taking steps until I found solid ground
                          C
Followed dreams, reaching higher
            F        E
Couldn't survive the fall

Am                         C
Much has changed since the last time
      F                  E            Am
And I feel a little less certain now
                         C
You know I jumped at the first sign
        F            E
Tell me only if it's real

Dm       C       G
Memories seem to fade
G
(On and on it goes)
Dm      C    G E
Wash my view away

Am
Hey!
  E     F                E        F G
I can't live in here for another day
Am       E   F                 E
Darkness has kept the light concealed
F    E  G F
Grim as ever
Am      E  F              E          F G
Hold on to faith as I dig another grave
Am        E   F               E
Meanwhile the mice endure the wheel
F    E  G F E
Real as ever
        F       E      G   F
And I'm chained like a slave
E
Trapped in the dark
E
Slammed all the locks
E
Death calls my name
       F     E         G F
And it seems I've been buried alive!

Solo 2x: Am C Dm G Am C Dm F E G F
       ( Am F ) (4x)
       ( Am Abm G F# F E ) (7x)
       ( E G F# F E )

E
Take you down now
E
Burn it all out
E
Throw you all around
E                G     F#  F
Get your fuckin' HANDS OFF ME!

E
What's it feel like?
E
Took the wrong route
E
Watch it fall apart
E                   G  F#  F     E
Now you're knockin' AT THE WRONG GATE!

G#         Am      B
For you to pay the toll
  Am        B   C
A price for you alone
G#       Am          B
The only deal you'll find
Am          B         C
I'll gladly take your soul

E
While it seems sick
E
Sober up quick
E              E
Psycho lunatic crushing you with
G     F# F
HANDS OF FATE!

E
Shame to find out
E
When it's too late
E
But you're all the same
E              G    F# F E
Trapped inside INFERNO AWAITS!

G#     Am          B
Evil thoughts can hide
Am        B        B
I'll help release the mind
G#         Am     B
I'll peel away the skin
Am         B       C
Release the dark within

E    G  F#  G       E
This is now your life
E      G   F#   G   E
Strike you from the light
E    G  F#  G    E
This is now your life
E    G F#   G E




Other versions

Buried Alive tabs


Other media

Buried Alive chords
Buried Alive tutorial


Also by Avenged Sevenfold

Welcome To The
Family tabs

Afterlife intro
The Beast And The
Harlot tabs

So Far Away bass tabs
Doing Time tabs
Streets tabs
Beast And The Harlot tutorial


Please rate:
Star rating 1Star rating 2Star rating 3Star rating 4Star rating 5

Rating: 3 / 5 [1 vote]