Jaded By Aerosmith

Browse chords & tabs: GuitarTabsExplorer / A / Aerosmith

Guitar Chords with Lyrics


Print tab
Intro 2x:

E|--------------------|
B|--------------------|
G|--------------------|
D|--6-6-6-6-4-4-------|
A|--0-----------------|
E|--------------------|



E|--------------------|
B|--------------------|
G|--------------------|  (2x)
D|--6~6b7r6-4-6-4-----|
A|--0-----0-----------|
E|--------------------|



E|--0-0-0-0-----------|
B|--3-3-0-2-----------|
G|--2-2-2-2-----------|
D|--------------------|
A|--------------------|
E|--------------------|




A         Amaj7
Hey ja-ja-jaded,

        Dsus2
you've got your mama's style
           D                  A
But your yesterday's child to me
   Amaj7
So jaded
    Dsus2
You think that's where it's at
       D                           Bm
But is that where it's supposed to be
       D                   Bm    D
You're gettin' it all over me  X-rated

A         F#m   C#m
My My     ba__by blue
E
Yeah I've been thinkin' about you
A         F#m    C#m
My My     ba__by blue
E               D
Yeah you're so jaded
    Bm
And I'm the one that jaded you
Refrão:
E|---------------------------------------|
B|---------------------------------------|
G|---------------------------------------|  (2x)
D|------------------------------2--------|
A|------2-4-----------4-4-4-2-4----------|
E|5-5-5-----2----------------------------|


E|---------------------------------------|
B|---------------------------------------|
G|---------------------------------------|
D|----------6~6-6-6-6-4---6~6p7h6-4-6-4--|
A|----------0~0-----------0-0------------|
E|---------------------------------------|



A        Amaj7
Hey j-j-jaded
   Dsus2
In all it's misery
    D                       A
It will always be what I love
    Amaj7
And hated
  Dsus2                         D
And maybe take a ride to the other side
             Bm
We're thinking of
      D                     Bm
We'll slip into the velvet glove
    D
And be jaded
A     F#m   C#m
My my ba__by blue
E
Yeah I'm thinking about you
A     F#m    C#m
My my ba__by blue
E            D
Yeah I'm so jaded
     Bm
And baby I'm afraid of you

E                         D
Your thinking's so complicated
E                     Bm
I've had it all up to here
E               D
But it's so overrated
         C
Love and hate it
           B7
Wouldn't trade it
Bb
Love me jaded
Solo:

           Amaj7                    Dmaj7    E      Amaj7
E|--------------------2-4-5--9br-9p7----7----------|
B|--5-2-----------2-5---------------10---10-9-10v~~|
G|------2-------2----------------------------------|
D|--------4-2-4------------------------------------|
A|-------------------------------------------------|
E|-------------------------------------------------|



A        A7+
Hey j-j-jaded
    Dsus2
There ain't no baby please
           D                       Bm
When I'm shootin' the breeze with her
          D                  Bm
When everything you see is a blur

And ecstasy's what you prefer
A     F#m    C#m
My my ba__by blue
E
Yeah I'm talkin' about you
A     F#m    C#m
My my ba__by blue
E
Yeah I've been thinkin' about you
A     F#m    C#m
My my ba__by blue
E               D
Yeah you're so jaded
E
Baby
D
Jaded
E
Baby
D
You're so jaded
E
'cause I'm the one that jaded you

            E           D            E           D            E          
Bm
E|---4-----------2--------|---4-----------2------5-|---4-----------2------------|
B|------7---5-------5---3-|------7---5-------5-----|------7---5-------5---3-----|
G|-4--4---4----2--2---2---|-4--4---4----4--2---2---|-4--4---4----2--2---2-------|
D|------------------------|------------------------|----------------------------|
A|------------------------|------------------------|----------------------------|
E|------------------------|------------------------|----------------------------|

         A          F#m         Dm
E|---------------------------------------------|
B|-------5br--------4br--------3br---3br--3br--|
G|-----5----------4----------3-----------------|
D|---5----------4----------3-------------------|
A|-3----------2----------1---------------------|


Be the first to rate:
Star rating 1Star rating 2Star rating 3Star rating 4Star rating 5

Rating: Not rated

aerosmith jaded c!

Other media

Jaded tabs


Also by aerosmith

Draw The Line chords
Cryin bass tabs
Blind Man tabs
Angel tabs
Shut Up And Dance chords
Lay It Down chords
Crazy chords
Lightning Strikes tabs
Bogey Man chords