Guitar tabs explorer
Print tab

Adele - “Someone like you“ Guitar tab

Adele Someone like you Guitar tabAdele Someone like you guitar tab. Related pages are Someone Like You (Ver2) Tabs, Someone Like You (Ver3) Chords, Someone Like You Live Chords, Someone Like You (Ver2) Chords, Someone Like You Chords. See all Adele tabs. Submit corrected and missing guitar tab here.

Please rate and comment!


Hi, this is my first time writing a tab so bear with me and feel free to comment
on any changes and improvements.
It's not finished, I have only worked out the intro and verses (not the bridges)

Tuning: Standard                     NO CAPO

E|------0-------0-------0-------0-------0-------0-------0-------0------------|
B|----2---2---2---2---2---2---2---2---2---2---2---2---2---2---2---2----------|
G|--2-------2-------2-------2-------1-------1-------1-------1----------------|
D|---------------------------------------------------------------------------|
A|---------------------------------------------------------------------------|
E|---------------------------------------------------------------------------|

                                                            I
E|------2-------2-------2-------2-------2-------2-------2-------2------------|
B|----2---2---2---2---2---2---2---2---3---3---3---3---3---3---3---3----------|
G|----------------------------------2-------2-------2-------2----------------|
D|--4-------4-------4-------4------------------------------------------------|
A|---------------------------------------------------------------------------|
E|---------------------------------------------------------------------------|


        heard               that you're     settled down,   That you
E|------0-------0-------0-------0-------0-------0-------0-------0------------|
B|----2---2---2---2---2---2---2---2---2---2---2---2---2---2---2---2----------|
G|--2-------2-------2-------2-------1-------1-------1-------1----------------|
D|---------------------------------------------------------------------------|
A|---------------------------------------------------------------------------|
E|---------------------------------------------------------------------------|
            found a girl    and you're      married now,
E|------2-------2-------2-------2-------2-------2-------2-------2------------|
B|----2---2---2---2---2---2---2---2---3---3---3---3---3---3---3---3----------|
G|----------------------------------2-------2-------2-------2----------------|
D|--4-------4-------4-------4------------------------------------------------|
A|---------------------------------------------------------------------------|
E|---------------------------------------------------------------------------|

          I       heard     that your dreams came true,       Guess she
E|------0-------0-------0-------0-------0-------0-------0-------0------------|
B|----2---2---2---2---2---2---2---2---2---2---2---2---2---2---2---2----------|
G|--2-------2-------2-------2-------1-------1-------1-------1----------------|
D|---------------------------------------------------------------------------|
A|---------------------------------------------------------------------------|
E|---------------------------------------------------------------------------|

    gave you things           I didnt't give to you,            Old
E|------2-------2-------2-------2-------2-------2-------2-------2------------|
B|----2---2---2---2---2---2---2---2---3---3---3---3---3---3---3---3----------|
G|----------------------------------2-------2-------2-------2----------------|
D|--4-------4-------4-------4------------------------------------------------|
A|---------------------------------------------------------------------------|
E|---------------------------------------------------------------------------|

            friend,       why are you so shy?               It ain't
E|------0-------0-------0-------0-------0-------0-------0-------0------------|
B|----2---2---2---2---2---2---2---2---2---2---2---2---2---2---2---2----------|
G|--2-------2-------2-------2-------1-------1-------1-------1----------------|
D|---------------------------------------------------------------------------|
A|---------------------------------------------------------------------------|
E|---------------------------------------------------------------------------|

    you to hold back          or hide         from the light
E|------2-------2-------2-------2-------2-------2-------2-------2------------|
B|----2---2---2---2---2---2---2---2---3---3---3---3---3---3---3---3----------|
G|----------------------------------2-------2-------2-------2----------------|
D|--4-------4-------4-------4------------------------------------------------|
A|---------------------------------------------------------------------------|
E|---------------------------------------------------------------------------|

This is the same for the 2nd verse and you can play this to the chorus but you
cut each phase in half like this:

E|------0-------0-------0-------0-------0-------0-------2-------2------------|
B|----2---2---2---2---2---2---2---2---2---2---2---2---3---3---3---3----------|
G|--2-------2-------1-------1-----------------------2-------2----------------|
D|----------------------------------4-------4--------------------------------|
A|---------------------------------------------------------------------------|
E|---------------------------------------------------------------------------|

Hope this is okay,
Thanks,

Be the first to rate:

Star rating 1
Star rating 2
Star rating 3
Star rating 4
Star rating 5

Rating: Not rated