Big Jack By AC/DC

Browse chords & tabs: GuitarTabsExplorer / A / AC/DC

Guitar Tabs


Print tab
Big Jack (lead only)
By: ACDC
Album: Black Ice

Intro
e---------------------|
b---------------------|
g-4-----4---------4---|
d-4--2--4--2---2--4---|
a-2--2--2--2---2--2---|
E----0-----0---0------|

Verse x4      
e--------------|-|--------------------|
b--------------|-|--------------------|
g---4----------|-|-4------4-4-4-4-4-4-|
d-2-4-2----(4)-|-|-4--2---2-4-2-4-2-4-|
a-2-2-2-5-4-2--|-|-2--2---2-2-2-2-2-2-|
E-0---0--------|-|----0---------------|

Pre-chorus 


e-------------------------------|-|-----------------------|-
b(4)(4)(4)(4)(4)(4)---------(4)-|-|(4)(4)(4)(4)(4)(4)-----|-
g-4--4--4--4--4--4-----------4--|-|-4--4--4--4--4--4------|-
d-4--4--4--4--4--4------4----4--|-|-4--4--4--4--4--4------|-
a-2--2--2--2--2--2--5-4-2----2--|-|-2--2--2--2--2--2--5-4-|-
E-------------------------------|-|-----------------------|-

|-----------------|-|--------------------------|
|-7-8-8-7-8-8-8-8-|-|-/13-13-13-13-13-13-13-13-|
|-7-7-7-7-7-7-7-7-|-|-/12-12-12-12-12-12-12-12-|
|-7-7-7-7-7-7-7-7-|-|-/12-12-12-12-12-12-12-12-|
|-----------------|-|--------------------------|
|-----------------|-|--------------------------|

Chorus (4x)


e----------------------|-|---------------|-|-------------|-|--------------|-
b-12-13-13-12-13p12h13-|-|-7--8-8-7-8----|-|-------------|-|--------------|-
g-12-12-12-12-12-------|-|-7--7-7-7-7----|-|-6-7-6-7-6---|-|-6--7-6-7-6---|-
d-12-12-12-12-12-------|-|-7--7-7-7-7----|-|-----------7-|-|------------7-|-
a----------------------|-|---------------|-|-------------|-|--------------|-
E----------------------|-|---------------|-|-------------|-|--------------|-


|-------------|-|--------------|
|-------------|-|--------------|
|-6-7-6-7-6---|-|-2------------|
|-----------7-|-|-2------2-----|
|-------------|-|-0------2-----|
|-------------|-|--------0-----|

Repeat:

Verse 4x

Pre Chorus (4x)

Chorus (4x)
----------------
Bridge 2x

e--------------|
b--------------|
g---4----------|
d-2-4-2----(4)-|
a-2-2-2-5-4-2--|
E-0---0--------|

Solo (thanks to playinbass1432)

E|--------7-7-7-7-----7---------7---|
B|--------7-7-7-7-------7-10----7---|
G|-------------------------9--------|
D|-9~~~~~---------------------------|
A|----------------------------------|
E|----------------------------------|

E|------------------------------|--------------------|
B|-7-----7-7---7-------7--------|----7-----7-7-7-----|
G|-7b----------7b--------7b-----|-9b---7b------------|
D|-------9-9-------9--------9---|----------9-9-9-----|
A|------------------------------|--------------------|
E|------------------------------|--------------------|

E|--------------------------------|-----------------------|
B|-/12-12-12---------12~~~~10-12-|-12-10-10-10---7-------|
G|-/11-11-11-----/13-------------|-11-11-11-11-9-7b------|
D|--------------------------------|------------------9----|
A|--------------------------------|-----------------------|
E|--------------------------------|-----------------------|

E|----------------------7-------|
B|------------------------------|
G|-7b----/9b11-9b11--------9~~~-|
D|----9-------------------------|
A|------------------------------|
E|------------------------------|

E|----------------------|--------------------7----------------|
B|-----12-12-10-12-12--|-----12----12-----7-10-7-----------|
G|-/13-11-11-11-11-11--|-/13-----/13----13---------9-7b------|
D|----------------------|--------------------------------9----|
A|----------------------|-------------------------------------|
E|----------------------|-------------------------------------|


          Hold Bend
E|-----------12-12-----------------------------|
B|-15b17~~~~-15-15-15--------------------------|
G|--------------------16-14----14-13----13----|
D|--------------------------14-------14--------|
A|---------------------------------------------|
E|---------------------------------------------|

E|-------------------------------------------|
B|/12-12-12-12-12-12-/15-15-15-15-15-15-15-/-|
G|/13-13-13-13-13-13-/14-14-14-14-14-14-14-/-|
D|-------------------------------------------|
A|-------------------------------------------|
E|-------------------------------------------|

Repeat:

Chorus 4x
----------
Outro

e----------------|---------------|-----------------|--------------|
b-12---13---12---|-7---8---7-----|-----------------|--------------|
g-12---12---12---|-7---7---7-----|-2---------4-----|------------4-|
d-12---12---12---|-7---7---7-----|-2----2----4-----|------------4-|
a----------------|---------------|-0----2----2-----|------------2-|
E----------------|---------------|------0----------|--------------|

email for any corrections 

g_g21@hotmail.com

The End                                                      The End


Be the first to rate:
Star rating 1Star rating 2Star rating 3Star rating 4Star rating 5

Rating: Not rated

AC/DC big jack g!

Other media

Big Jack bass tabs


Also by AC/DC

Thunderstruck bass tabs
Shook Me All Night
Long chords

Highway To Hell bass tabs
Let There Be Rock intro
Back In Black (Ver2) tabs
Walk All Over You tabs
Night Of The Long
Knives tabs

Dirty Eyes tabs
Shoot To Thrill tabs