Big Jack By AC/DC

Browse chords & tabs:
GuitarTabsExplorer / A / AC/DC

Guitar Tabs


Print tab
Big Jack (lead only)
By: ACDC
Album: Black Ice

Intro
e---------------------|
b---------------------|
g-4-----4---------4---|
d-4--2--4--2---2--4---|
a-2--2--2--2---2--2---|
E chord diagramEE----0-----0---0------|

Verse x4      
e--------------|-|--------------------|
b--------------|-|--------------------|
g---4----------|-|-4------4-4-4-4-4-4-|
d-2-4-2----(4)-|-|-4--2---2-4-2-4-2-4-|
a-2-2-2-5-4-2--|-|-2--2---2-2-2-2-2-2-|
E chord diagramEE-0---0--------|-|----0---------------|

Pre-chorus 


e-------------------------------|-|-----------------------|-
b(4)(4)(4)(4)(4)(4)---------(4)-|-|(4)(4)(4)(4)(4)(4)-----|-
g-4--4--4--4--4--4-----------4--|-|-4--4--4--4--4--4------|-
d-4--4--4--4--4--4------4----4--|-|-4--4--4--4--4--4------|-
a-2--2--2--2--2--2--5-4-2----2--|-|-2--2--2--2--2--2--5-4-|-
E chord diagramEE-------------------------------|-|-----------------------|-

|-----------------|-|--------------------------|
|-7-8-8-7-8-8-8-8-|-|-/13-13-13-13-13-13-13-13-|
|-7-7-7-7-7-7-7-7-|-|-/12-12-12-12-12-12-12-12-|
|-7-7-7-7-7-7-7-7-|-|-/12-12-12-12-12-12-12-12-|
|-----------------|-|--------------------------|
|-----------------|-|--------------------------|

Chorus (4x)


e----------------------|-|---------------|-|-------------|-|--------------|-
b-12-13-13-12-13p12h13-|-|-7--8-8-7-8----|-|-------------|-|--------------|-
g-12-12-12-12-12-------|-|-7--7-7-7-7----|-|-6-7-6-7-6---|-|-6--7-6-7-6---|-
d-12-12-12-12-12-------|-|-7--7-7-7-7----|-|-----------7-|-|------------7-|-
a----------------------|-|---------------|-|-------------|-|--------------|-
E chord diagramEE----------------------|-|---------------|-|-------------|-|--------------|-


|-------------|-|--------------|
|-------------|-|--------------|
|-6-7-6-7-6---|-|-2------------|
|-----------7-|-|-2------2-----|
|-------------|-|-0------2-----|
|-------------|-|--------0-----|

Repeat:

Verse 4x

Pre Chorus (4x)

Chorus (4x)
----------------
Bridge 2x

e--------------|
b--------------|
g---4----------|
d-2-4-2----(4)-|
a-2-2-2-5-4-2--|
E chord diagramEE-0---0--------|

Solo (thanks to playinbass1432)

E| chord diagramE|E|--------7-7-7-7-----7---------7---|
B| chord diagramB|B|--------7-7-7-7-------7-10----7---|
G| chord diagramG|G|-------------------------9--------|
D| chord diagramD|D|-9~~~~~---------------------------|
A| chord diagramA|A|----------------------------------|
E| chord diagramE|E|----------------------------------|

E| chord diagramE|E|------------------------------|--------------------|
B| chord diagramB|B|-7-----7-7---7-------7--------|----7-----7-7-7-----|
G| chord diagramG|G|-7b----------7b--------7b-----|-9b---7b------------|
D| chord diagramD|D|-------9-9-------9--------9---|----------9-9-9-----|
A| chord diagramA|A|------------------------------|--------------------|
E| chord diagramE|E|------------------------------|--------------------|

E| chord diagramE|E|--------------------------------|-----------------------|
B| chord diagramB|B|-/12-12-12---------12~~~~10-12-|-12-10-10-10---7-------|
G| chord diagramG|G|-/11-11-11-----/13-------------|-11-11-11-11-9-7b------|
D| chord diagramD|D|--------------------------------|------------------9----|
A| chord diagramA|A|--------------------------------|-----------------------|
E| chord diagramE|E|--------------------------------|-----------------------|

E| chord diagramE|E|----------------------7-------|
B| chord diagramB|B|------------------------------|
G| chord diagramG|G|-7b----/9b11-9b11--------9~~~-|
D| chord diagramD|D|----9-------------------------|
A| chord diagramA|A|------------------------------|
E| chord diagramE|E|------------------------------|

E| chord diagramE|E|----------------------|--------------------7----------------|
B| chord diagramB|B|-----12-12-10-12-12--|-----12----12-----7-10-7-----------|
G| chord diagramG|G|-/13-11-11-11-11-11--|-/13-----/13----13---------9-7b------|
D| chord diagramD|D|----------------------|--------------------------------9----|
A| chord diagramA|A|----------------------|-------------------------------------|
E| chord diagramE|E|----------------------|-------------------------------------|


          Hold Bend
E| chord diagramE|E|-----------12-12-----------------------------|
B| chord diagramB|B|-15b17~~~~-15-15-15--------------------------|
G| chord diagramG|G|--------------------16-14----14-13----13----|
D| chord diagramD|D|--------------------------14-------14--------|
A| chord diagramA|A|---------------------------------------------|
E| chord diagramE|E|---------------------------------------------|

E| chord diagramE|E|-------------------------------------------|
B| chord diagramB|B|/12-12-12-12-12-12-/15-15-15-15-15-15-15-/-|
G| chord diagramG|G|/13-13-13-13-13-13-/14-14-14-14-14-14-14-/-|
D| chord diagramD|D|-------------------------------------------|
A| chord diagramA|A|-------------------------------------------|
E| chord diagramE|E|-------------------------------------------|

Repeat:

Chorus 4x
----------
Outro

e----------------|---------------|-----------------|--------------|
b-12---13---12---|-7---8---7-----|-----------------|--------------|
g-12---12---12---|-7---7---7-----|-2---------4-----|------------4-|
d-12---12---12---|-7---7---7-----|-2----2----4-----|------------4-|
a----------------|---------------|-0----2----2-----|------------2-|
E chord diagramEE----------------|---------------|------0----------|--------------|

email for any corrections 

g_g21@hotmail.com

The End                                                               The End


Be the first to rate:
Star rating 1Star rating 2Star rating 3Star rating 4Star rating 5

Rating: Not rated

AC/DC big jack g!

Other media

Big Jack bass tabs


Also by AC/DC

Sin City bass tabs
Cold Hearted Man tabs
Shot Of Love tabs
Stand Up tabs
Squealer bass tabs
Hell Or High Water tabs
Thats The Way I Want
To Rock And Roll tabs

Money Talks tabs
You Shook Me All
Night Long chords