Guitar tabs explorer
Print tab

AC/DC - “Big jack“ Bass tab

AC/DC Big jack Bass tabAC/DC Big jack bass tab. Related pages are Big Jack Tabs, Tnt (Ver2) Tabs, Thunderstruck Tabs, Highway To Hell Tabs, Back In Black Tabs. See all AC/DC tabs. Submit corrected and missing bass tab here.

This 'Big jack' bass tab by AC/DC also include lyrics.

Please rate and comment!


BIG JACK (Bassline)



      Transcribed by Gary Ramsey



Gtr I (G) - 'Staff'


  Q=125
 2/4    4/4
  Gtr I
  W      W          W          W          E
|------|----------|----------|----------|-------------------|
|------|----------|----------|----------|-2-4-2-0-----------|
|------|----------|----------|----------|---------4-2-2-2---|
|------|----------|----------|----------|-------------------|


  E
|-----------------|-----------------|-----------------|-----------------|
|-----------------|-----------------|-----------------|-2-4-2-0---------|
|-2-2-2-2-2-2-2-2-|-2-2-2-2-2-2-2-2-|-2-2-2-2-2-2-2-2-|---------4-2-2-2-|
|-----------------|-----------------|-----------------|-----------------|


  E
|-----------------|-----------------|-----------------|-----------------|
|-----------------|-----------------|-----------------|-2-4-2-0---------|
|-2-2-2-2-2-2-2-2-|-2-2-2-2-2-2-2-2-|-2-2-2-2-2-2-2-2-|---------4-2-2-2-|
|-----------------|-----------------|-----------------|-----------------|


  E
|-----------------|-----------------|-----------------|-----------------|
|-----------------|-----------------|-----------------|-2-4-2-0---------|
|-2-2-2-2-2-2-2-2-|-2-2-2-2-2-2-2-2-|-2-2-2-2-2-2-2-2-|---------4-2-2-2-|
|-----------------|-----------------|-----------------|-----------------|


  E
|-----------------|-----------------|-----------------|-------------------|
|-----------------|-----------------|-----------------|-------2-4-2-0-----|
|-2-2-2-2-2-2-2-2-|-2-2-2-2-2-2-2-2-|-2-2-2-2-2-2-2-2-|-(2)-2---------4-2-|
|-----------------|-----------------|-----------------|-------------------|


  +E
|-------------------|-------------------|
|-------------------|-------2-4-2-0-----|
|-(2)-2-2-2-2-2-2-2-|-(2)-2---------4-2-|
|-------------------|-------------------|


  +E
|-------------------|-------------------|
|-------------------|-------2-4-2-0-----|
|-(2)-2-2-2-2-2-2-2-|-(2)-2---------4-2-|
|-------------------|-------------------|


  +E
|-------------------|-------------------|-------------------|-----------------|
|-------------------|-------2-4-2-0-----|-------------------|-----------------|
|-(2)-2-2-2-2-2-2-2-|-(2)-2---------4-5-|-(5)-5-5-5-5-5-5-5-|-5-5-5-5-5-5-5-5-|
|-------------------|-------------------|-------------------|-----------------|


  E
|-----------------|-----------------|-----------------|-----------------|
|-----------------|-----------------|-----------------|-----------------|
|---------------5-|-5-5-5-5-5-5-5-5-|-----------------|-----------------|
|-3-3-3-3-3-3-3---|-----------------|-5-5-5-5-5-5-5-5-|-5-5-5-5-5-5-5-5-|


  E
|-----------------|-----------------|-----------------|-----------------|
|-----------------|-----------------|-----------------|-----------------|
|---------------5-|-5-5-5-5-5-5-5-5-|-----------------|-----------------|
|-3-3-3-3-3-3-3---|-----------------|-5-5-5-5-5-5-5-5-|-5-5-5-5-5-5-5-5-|


  E
|-----------------|-----------------|-----------------|-----------------|
|-----------------|-----------------|-----------------|-----------------|
|---------------5-|-5-5-5-5-5-5-5-5-|-----------------|-----------------|
|-3-3-3-3-3-3-3---|-----------------|-5-5-5-5-5-5-5-5-|-5-5-5-5-5-5-5-5-|


  H
|-----------------|-----------------|-----------------|---------------|
|-----------------|-----------------|-----------------|---------------|
|---------------5-|-5-5-5-5-5-5-5-5-|-----------------|---------------|
|-3-3-3-3-3-3-3---|-----------------|-5-5-5-5-5-5-5-5-|-5----0-(0)----|


  E
|-----------------|-----------------|-----------------|-----------------|
|-----------------|-----------------|-----------------|-----------------|
|-7-9-7-5-4-2-2-2-|-2-2-2-2-2-2-2-2-|-2-2-2-2-2-2-2-2-|-2-2-2-2-2-2-2-2-|
|-----------------|-----------------|-----------------|-----------------|


  E
|-----------------|-----------------|-----------------|-----------------|
|-2-4-2-0---------|-----------------|-----------------|-----------------|
|---------4-2-2-2-|-2-2-2-2-2-2-2-2-|-2-2-2-2-2-2-2-2-|-2-2-2-2-2-2-2-2-|
|-----------------|-----------------|-----------------|-----------------|


  E
|-----------------|-----------------|-----------------|-----------------|
|-2-4-2-0---------|-----------------|-----------------|-----------------|
|---------4-2-2-2-|-2-2-2-2-2-2-2-2-|-2-2-2-2-2-2-2-2-|-2-2-2-2-2-2-2-2-|
|-----------------|-----------------|-----------------|-----------------|


  E
|-----------------|-----------------|-----------------|-----------------|
|-2-4-2-0---------|-----------------|-----------------|-----------------|
|---------4-2-2-2-|-2-2-2-2-2-2-2-2-|-2-2-2-2-2-2-2-2-|-2-2-2-2-2-2-2-2-|
|-----------------|-----------------|-----------------|-----------------|


  +E
|-------------------|-------------------|
|-------2-4-2-0-----|-------------------|
|-(2)-2---------4-2-|-(2)-2-2-2-2-2-2-2-|
|-------------------|-------------------|

  +E
|-------------------|-------------------|
|-------2-4-2-0-----|-------------------|
|-(2)-2---------4-2-|-(2)-2-2-2-2-2-2-2-|
|-------------------|-------------------|


  +E
|-------------------|-------------------|
|-------2-4-2-0-----|-------------------|
|-(2)-2---------4-2-|-(2)-2-2-2-2-2-2-2-|
|-------------------|-------------------|


  +E
|-------------------|-------------------|
|-------2-4-2-0-----|-------------------|
|-(2)-2---------4-5-|-(5)-5-5-5-5-5-5-5-|
|-------------------|-------------------|


  E
|-----------------|-----------------|-----------------|-----------------|
|-----------------|-----------------|-----------------|-----------------|
|-5-5-5-5-5-5-5-5-|---------------5-|-5-5-5-5-5-5-5-5-|-----------------|
|-----------------|-3-3-3-3-3-3-3---|-----------------|-5-5-5-5-5-5-5-5-|


  E
|-----------------|-----------------|-----------------|-----------------|
|-----------------|-----------------|-----------------|-----------------|
|-----------------|---------------5-|-5-5-5-5-5-5-5-5-|-----------------|
|-5-5-5-5-5-5-5-5-|-3-3-3-3-3-3-3---|-----------------|-5-5-5-5-5-5-5-5-|


  E
|-----------------|-----------------|-----------------|-----------------|
|-----------------|-----------------|-----------------|-----------------|
|-----------------|---------------5-|-5-5-5-5-5-5-5-5-|-----------------|
|-5-5-5-5-5-5-5-5-|-3-3-3-3-3-3-3---|-----------------|-5-5-5-5-5-5-5-5-|


  E
|-----------------|-----------------|-----------------|-----------------|
|-----------------|-----------------|-----------------|-----------------|
|-----------------|---------------5-|-5-5-5-5-5-5-5-5-|-----------------|
|-5-5-5-5-5-5-5-5-|-3-3-3-3-3-3-3---|-----------------|-5-5-5-5-5-5-5-5-|


  Q.   E
|---------------|----------------|----------|-----------------|
|---------------|----------------|----------|-2-4-2-0---------|
|---------------|-7-9-7-5-4-2----|----------|---------4-2---2-|
|-5----0-(0)----|----------------|----------|-----------------|


  +E
|---------------|-----------------|-----------------|-----------------|
|---------------|---------------0-|-0-0-0-----------|---------------0-|
|-(2)----(2)----|-2-2-2-2-2-2-2---|---------------0-|-2-2-2-2-2-2-2---|
|---------------|-----------------|-------0-0-0-0---|-----------------|


  E
|-----------------|-----------------|-----------------|-----------------|
|-0-0-0-----------|---------------0-|-0-0-0-----------|---------------0-|
|---------------0-|-2-2-2-2-2-2-2---|---------------0-|-2-2-2-2-2-2-2---|
|-------0-0-0-0---|-----------------|-------0-0-0-0---|-----------------|


  +E
|---------------------|-----------------|
|-(0)-0-0-------------|-----------------|
|---------------------|-----------------|
|---------0-(0)-0-0-0-|-0-0-0-0-0-0-0-0-|


                   6/4
  Q  E
|-----------------|-------------------------|
|-0---------------|-------0--0-0-0-0-0-0-0--|
|----0------------|-------------------------|
|------0-(0)--0-0-|-0-0-0-------------------|


 4/4
  E
|-----------------|-----------------|-----------------|------------------|
|-----------------|-----------------|-----------------|------------------|
|---------------5-|-5-5-5-5-5-5-5-5-|-----------------|------------------|
|-3-3-3-3-3-3-3---|-----------------|-5-5-5-5-5-5-5-5-|-5-5-5-5-5-5-5-5--|


  E
|-----------------|-----------------|-----------------|-----------------|
|-----------------|-----------------|-----------------|-----------------|
|---------------5-|-5-5-5-5-5-5-5-5-|-----------------|-----------------|
|-3-3-3-3-3-3-3---|-----------------|-5-5-5-5-5-5-5-5-|-5-5-5-5-5-5-5-5-|


  E
|-----------------|-----------------|-----------------|-----------------|
|-----------------|-----------------|-----------------|-----------------|
|---------------5-|-5-5-5-5-5-5-5-5-|-----------------|-----------------|
|-3-3-3-3-3-3-3---|-----------------|-5-5-5-5-5-5-5-5-|-5-5-5-5-5-5-5-5-|


  H
|-----------------|-----------------|-----------------|---------------|
|-----------------|-----------------|-----------------|---------------|
|---------------5-|-5-5-5-5-5-5-5-5-|-----------------|---------------|
|-3-3-3-3-3-3-3---|-----------------|-5-5-5-5-5-5-5-5-|-5----0-(0)----|


  H    +H       H    +H       H    +Q   Q    W
|-------------|-------------|--------------|------|
|-------------|-------------|--------------|------|
|-------------|-5----(5)----|--------------|------|
|-3----(3)----|-------------|-5----(5)--0--|-7----|


  +W           +W           +Q.   E +S  S E Q
|------------|------------|---------------------*|
|------------|------------|---------------------*|
|------------|------------|---------------------*|
|-(7)--------|-(7)--------|-(7)---7-(7)---------*|





Duration Legend
---------------
W - whole; H - half; Q - quarter; E - 8th; S - 16th; T - 32nd; X - 64th; a - acciaccatura
+ - note tied to previous; . - note dotted; .. - note double dotted
Uncapitalized letters represent notes that are staccato (1/2 duration)
Irregular groupings are notated above the duration line
Duration letters will always appear directly above the note/fret number it represents the
duration for.  Duration letters with no fret number below them represent rests.  Multi-
bar rests are notated in the form Wxn, where n is the number of bars to rest for.  Low
melody durations appear below the staff

Tablature Legend
----------------
 h   - hammer-on
 p   - pull-off
 b   - bend
 pb  - pre-bend
 r   - bend release (if no number after the r, then release immediately)
 /\  - slide into or out of (from/to "nowhere")
 s   - legato slide
 S   - shift slide
<n> - natural harmonic
[n]  - artificial harmonic
n(n) - tapped harmonic
 ~   - vibrato
 tr  - trill
 T   - tap
 TP  - trem. picking
 PM  - palm muting
\n/  - tremolo bar dip; n = amount to dip
 \n  - tremolo bar down
 n/  - tremolo bar up
/n\  - tremolo bar inverted dip
 =   - hold bend; also acts as connecting device for hammers/pulls
 <> - volume swell (louder/softer)
 x   - on rhythm slash represents muted slash
 o   - on rhythm slash represents single note slash

Misc Legend
-----------
 |  - bar
||  - double bar
||o - repeat start
o|| - repeat end
*|  - double bar (ending)
 :  - bar (freetime)
 $  - Segno
 &  - Coda
Tempo markers - <E/E./Q/Q./H/H.> = BPM(8/16=s8/s16), where s8 = swing 8ths, s16 = swing 16ths




** Generated using Power Tab Editor by Brad Larsen: The Official Power Tab Web

Be the first to rate:

Rating: Not rated